The Stooges - I Wanna Be Your Dog tab

The Stooges - I Wanna be your dog.
  Intro(1ra y 2da guitarra)
E|-----------------------|
B|-----------------------|
G|-----------------2b----|
D|-5--4--2--2(x17)-2b----|
A|-5--4--2--2------2b----|
E|-3--2--0---------------|


Verso(1ra y segunda guitarra)
E|-----------------------------------------|
B|-----------------------------------------|
G|--12-12-12--11-11-11-11--9-9-9-9-9-9-9---|
D|--12-12-12--11-11-11-11--9-9-9-9-9-9-9---|(x12)
A|--10-10-10--9--9--9--9---7-7-7-7-7-7-7---|
E|-----------------------------------------|


Coro(1ra y 2da guitarra)
And naw I wanna be your dog...
E|------------------------------------------------|
B|------------------------------------------------|
G|--12-12-12-12--11-11-11-11-11-11-11--9-9-9-9----|
D|--12-12-12-12--11-11-11-1111-11-11--9-9-9-9----|(x3)
A|--10-10-10-10--9--9--9--9--9-9--9---7-7-7-7----|
E|------------------------------------------------|

E|----------------------------------------------------|
B|----------------------------------------------------|
G|--12-12-12-9-9-9-9--7-7-7-4-4-4-4--5------7---------|
D|--12-12-12-9-9-9-9--7-7-7-4-4-4-4--5(x16)-7(x16)----|
A|--10-10-10-7-7-7-7--5-5-5-2-2-2-2--3------5---------|
E|----------------------------------------------------|
            El verso y el coro se repiten.


Solo....
e-------------------------------------------------------|
B-------------------------------------------------------|
G-------------------------------------------------------|
D--11/12-11-12-12b14-12-11-11h12p11-9-7h9p7h9p7h9p7h9p7-|
A-------------------------------------------------------|
E-------------------------------------------------------|

e--------------------------------------------------|
B--------------------------------------------------|
G--------------------------------------------------|
D-11/12-11-12-11/12/14-14/15-14-12--14-7/9-7/9-7/9-|
A--------------------------------------------------|
E--------------------------------------------------|

e-----------------------------------------------------|
B-----------------------------------------------------|
G--------------------------12b------------------------|
D-/12-12-12/14-12/14-12/14-----14p12h14p12-11h12p11-9-|
A-----------------------------------------------------|
E-----------------------------------------------------|

e-------------------------------------------|
B-------------------------------------------|
G-------------------------------------------|
D-------------------------------------------|
A-12--9----9-12-9------------10h12p10-12-12-|
E-------10---------10--13p11----------------|

e---------------------------------------------------------------|
B---------------------------------------------------------------|
G--------------------------------------------------14b-12-14-12-|
D-12-11-12-12/14-12-14-14/16-14-12-14------12h14p12-------------|
A-------------------------------------12h14---------------------|
E---------------------------------------------------------------|

e-------------------------------------------------------------|
B-------------------------------------------------------------|
G----------12br-----------------------------------------------|
D-14p12h14------14-----14-------------------------------------|
A-------------------12----12b13br-12h14-12--------------------|
E------------------------------------------15-12h15-12\10-12--|



Espero les sirva...
Edd Stepenwolf RL
Tap to rate this tab
 
# A B C D E F G H I J K L M N O P Q R S T U V W X Y Z