Song name
# A B C D E F G H I J K L M N O P Q R S T U V W X Y Z

The Stooges - Gimme Danger tab

-------------------------------------------------------------------------------
			     GIMME DANGER - Iggy and The Stooges
-------------------------------------------------------------------------------
Tabbed by: Benjamin White
Email: bennyshambles@gmail.com

This is just the riff & rhythm part. Solo is not included.

Tuning: 1/2 Step Down

INTRO
eb|-x--2-0---x--0-------3-----------------------------------------------------|
A#|-x-----0--3---3-------3-----2----------------------------------------------|
F#|-x--------2----2-------0--2--2---------------------------------------------|
C#|-2--------0--------2------2---2--------------------------------------------|
G#|-2-----------------3------0------------------------------------------------|
Eb|-0-------------------------------------------------------------------------|



MAIN RIFF: repeat 4 times, then start singing
eb|---------------------------------------------------------------------------|
A#|----------------------------0----------------------------------------------|
F#|-x---0--0-----------------0------------------------------------------------|
C#|-x---4--2---2-----0-----2--------------------------------------------------|
G#|-2---4--2---2-------0-3----------------------------------------------------|
Eb|-0---0--0--0--0-2----------------------------------------------------------|

VARIATION OF MAIN RIFF: Throw in every 3rd or 4th cycle
eb|---------------------------------------------------------------------------|
A#|--------------------------3-0----------------------------------------------|
F#|-x------------------------0------------------------------------------------|
C#|-x---4--2---2-----0-----2--------------------------------------------------|
G#|-2---4--2---2-------0-3----------------------------------------------------|
Eb|-0---0--0--0--0-2----------------------------------------------------------|



CHANGE
eb|-x-0---------2-0--0------3----------------------x-0-----2-0-----3----------|
A#|-3--3--3--------0--0------3--3------2--2H3P2----3--3-------0-----3-----2---|
F#|-2---2--2---x-------0--0---0--0---2--2------2---2---2--x------0---0--2--2--|
C#|-0-------0--x----------2-------2--2---2---------0------X------2------2---2-|
G#|------------2----------3----------0--------------------2------3------0-----|
Eb|------------0------------------------------------------0-------------------|


Back to MAIN RIFF/VERSE

CHANGE

BRIDGE = Em(Ebm) to G(F#) to Dsus2(C#sus2) back to Em(Ebm) // then just Dsus2(C#sus2) to Em(Ebm)


OUTRO is the same as the INTRO, but just stretched out.

The chord sequence: Em(Ebm) to Dsus2(C#sus2) to Cadd9(Badd9) to A(G#)

FADE OUT...
Tap to rate this tab
 
# A B C D E F G H I J K L M N O P Q R S T U V W X Y Z