Song name
# A B C D E F G H I J K L M N O P Q R S T U V W X Y Z

The Stooges - No Fun tab

 ----------------------------------------------------------------------------
                              No Fun - The Stooges
-----------------------------------------------------------------------------
Tabbed by: sugarpunk33
Album: The Stooges,1969
Instrument: Electric Guitar (with distortion)
Tuning: Standard

vocals:Iggy Pop
Guitar:Ron Asheton
Bass  :Dave Alexander
Drums :Scott Asheton

Intro
0:03
E|---------------------------------|0:14
B|---------------------------------|
G|------------------7-7-5-7--5-7-5-|
D|--7-7-5-7--5-7-5--7-7-5-7--5-7-5-|
A|--7-7-5-7--5-7-5--5-5-5-5--5-5-5-|
E|--5-5-5-5--5-5-5-----------------|X3

E|----------------------------------|0:18
B|----------------------------------|
G|----------------------------------|
D|--7-7-5-7--5-7-5--7-7-5-7--5-7-5--|
A|--7-7-5-7--5-7-5--7-7-5-7--5-7-5--|
E|--5-5-5-5--5-5-5--5-5-5-5--5-5-5--|

E|-------------------------------------------------------------|0:25
B|-------------------------------------------------------------|
G|-------------------------------------------------------------|
D|-7-7-5-7--5-7-5--2-2-2-2-2-2--7-7-5-7--5-7-5--7-7-5-7--5-7-5-|
A|-7-7-5-7--5-7-5--2-2-2-2-2-2--7-7-5-7--5-7-5--7-7-5-7--5-7-5-|
E|-5-5-5-5--5-5-5--0-0-0-0-0-0--5-5-5-5--5-5-5--5-5-5-5--5-5-5-|
   No fun           my babe,     no fun

E|-------------------------------------------------------------|0:33
B|-------------------------------------------------------------|
G|-------------------------------------------------------------|
D|-7-7-5-7--5-7-5--2-2-2-2-2-2--7-7-5-7--5-7-5--7-7-5-7--5-7-5-|
A|-7-7-5-7--5-7-5--2-2-2-2-2-2--7-7-5-7--5-7-5--7-7-5-7--5-7-5-|
E|-5-5-5-5--5-5-5--0-0-0-0-0-0--5-5-5-5--5-5-5--5-5-5-5--5-5-5-|
   No fun          my babe,      no fun

E|---------------------------------|0:37
B|---------------------------------|
G|-7-7-5-7--5-7-5------------------|
D|-7-7-5-7--5-7-5--7-7-5-7--5-7-5--|
A|-5-5-5-5--5-5-5--7-7-5-7--5-7-5--|
E|-----------------5-5-5-5--5-5-5--|
    No fun to hang around

E|-----------------------------|0:41
B|-----------------------------|
G|-----------------------------|
D|-2-2-2-2-2-2--7-7-5-7--5-7-5-|
A|-2-2-2-2-2-2--7-7-5-7--5-7-5-|
E|-0-0-0-0-0-0--5-5-5-5--5-5-5-|
Feeling that same old way

E|--------------------------------|0:45
B|--------------------------------|
G|-7-7-5-7--5-7-5-----------------|
D|-7-7-5-7--5-7-5--7-7-5-7--5-7-5-|
A|-5-5-5-5--5-5-5--7-7-5-7--5-7-5-|
E|-----------------5-5-5-5--5-5-5-|
  No fun to hang around

E|-----------------------------|0:50
B|-----------------------------|
G|-----------------------------|
D|-2-2-2-2-2-2-2---------------|
A|-2-2-2-2-2-2-2---------------|
E|-0-0-0-0-0-0-0---------------|
  Freaked out                 for another day





E|-----------------|0:57
B|-----------------|
G|-----------------|
D|-7-7-5-7--5-7-5--|
A|-7-7-5-7--5-7-5--|
E|-5-5-5-5--5-5-5--|X4

E|-------------------------------------------------------------|1:05
B|-------------------------------------------------------------|
G|-------------------------------------------------------------|
D|-7-7-5-7--5-7-5--2-2-2-2-2-2--7-7-5-7--5-7-5--7-7-5-7--5-7-5-|
A|-7-7-5-7--5-7-5--2-2-2-2-2-2--7-7-5-7--5-7-5--7-7-5-7--5-7-5-|
E|-5-5-5-5--5-5-5--0-0-0-0-0-0--5-5-5-5--5-5-5--5-5-5-5--5-5-5-|
    No fun         my babe      no fun

E|-------------------------------------------------------------|1:13
B|-------------------------------------------------------------|
G|-------------------------------------------------------------|
D|--7-7-5-7--5-7-5--2-2-2-2-2-2--7-7-5-7--5-7-5--7-7-5-7--5-7-5|
A|--7-7-5-7--5-7-5--2-2-2-2-2-2--7-7-5-7--5-7-5--7-7-5-7--5-7-5|
E|--5-5-5-5--5-5-5--0-0-0-0-0-0--5-5-5-5--5-5-5--5-5-5-5--5-5-5|
    No fun          my babe      no fun

E|--------------------------------|1:17
B|--------------------------------|
G|-7-7-5-7--5-7-5-----------------|
D|-7-7-5-7--5-7-5--7-7-5-7--5-7-5-|
A|-5-5-5-5--5-5-5--7-7-5-7--5-7-5-|
E|-----------------5-5-5-5--5-5-5-|
   No fun to be around

E|-------------------------------|1:21
B|-------------------------------|
G|-------------------------------|
D|-2-2-2-2-2-2-2--7-7-5-7--5-7-5-|
A|-2-2-2-2-2-2-2--7-7-5-7--5-7-5-|
E|-0-0-0-0-0-0-0--5-5-5-5--5-5-5-|
   Walking by myself

E|--------------------------------|1:25
B|--------------------------------|
G|-7-7-5-7--5-7-5-----------------|
D|-7-7-5-7--5-7-5--7-7-5-7--5-7-5-|
A|-5-5-5-5--5-5-5--7-7-5-7--5-7-5-|
E|-----------------5-5-5-5--5-5-5-|
   No fun to be alone
E|----------------------------|1:29-|
B|----------------------------------|
G|----------------------------------|
D|-2-2-2-2-2-2-2--------------------|
A|-2-2-2-2-2-2-2--------------------|
E|-0-0-0-0-0-0-0--------------------|
   In love                 with nobody else

E|----------------|1:37
B|----------------|
G|----------------|
D|-7-7-5-7--5-7-5-|
A|-7-7-5-7--5-7-5-|
E|-5-5-5-5--5-5-5-|X4

E|---------------------------------|1:40
B|---------------------------------|
G|---------------------------------|
D|-2--2--2--2--2--2--2--2--2--2--2-|
A|-2--2--2--2--2--2--2--2--2--2--2-|
E|-0--0--0--0--0--0--0--0--0--0--0-|
  Well maybe go out maybe stay home
E|------------------------------|1:44
B|------------------------------|
G|------------------------------|
D|-2--2--2--2--2--2--2--2--2--2-|
A|-2--2--2--2--2--2--2--2--2--2-|
E|-0--0--0--0--0--0--0--0--0--0-|
   maybe call Mom on the telephone
E|--------------------------------|5:17-|
B|--------------------------------------|
G|-----------------7-7-5-7--5-7-5-------|
D|-7-7-5-7--5-7-5--7-7-5-7--5-7-5-------|
A|-7-7-5-7--5-7-5--5-5-5-5--5-5-5-------|
E|-5-5-5-5--5-5-5-----------------------|X keep playing  until fades out
  Well come on,    well come on,
  well come on........

The solo of the second guitar begins at 2: 50
Tap to rate this tab
# A B C D E F G H I J K L M N O P Q R S T U V W X Y Z