Guitaretab - guitar tabs
Song name
# A B C D E F G H I J K L M N O P Q R S T U V W X Y Z

The Stooges - I Wanna Be Your Dog tab

I Wanna Be Your Dog - The Stooges
  Intro
E|---------------------------------------|
B|---------------------------------------|
G|---------------------------------------|
D|---------1-----1-1---3-1---------------|
A|-----1-4---4-1-----4-----4-1-----------|
E|-3-5-------------------------5p3-0-0---|

  Verse
E|---------------------------------------------------------------------|
B|---------------------------------------------------------------------|
G|---------------------------------------------------------------------|
D|--12-12-12-12-11-11-11-11--9-9-9-9-9-9-9-9---------------------------|
A|--10-10-10-10-9--9--9--9---7-7-7-7-7-7-7-7---------------------------|
E|--10-10-10-10-9-9-9--9---7-7-7-7-7-7-7-7---------------------------|

  Chorus
E|----------------------------------------------------------------------|
B|----------------------------------------------------------------------|
G|----------------------------------------------------------------------|
D|--12-12-12-12-11-11-11-1111-11-11-11-9-9-9-9-------------------------|
A|--10-10-10-10-9--9--9--9--9-9--9--9--7-7-7-7-------------------------|
E|--10-10-10-10-9-9-9--9-9-9-9--9--7-7-7-7-------------------- x 3-|
[ Tab from: http://www.guitaretab.com/t/the-stooges/34405.html ]
E|---------------------------------------------------------------------|
B|---------------------------------------------------------------------|
G|---------------------------------------------------------------------|
D|--12-12-12---9-9-9-9-9-7-7-7-4-4-4-4---------------------------------|
A|--10-10-10---7-7-7-7-7-5-5-5-2-2-2-2---------------------------------|
E|--10-10-10---7-7-7-7-7-5-5-5-2-2-2-2---------------------------------|

E|---------------------------------------------------------------------|
B|---------------------------------------------------------------------|
G|---------------------------------------------------------------------|
D|--5---------9--------------------------------------------------------|
A|--3x16-----7x16----------------------------------------------------|
E|--3---------7--------------------------------------------------------|

  End Solo
E|----------------------------------------------------------------|
B|-----------------------------------------------------8b---------|
G|-------7-9-9b10-7---7----------------------------7-9----9-7-9---|
D|-9-7-9------------9--9-7h9p7h9p7h9p7h9p7-7--9-7-9---------------|
A|----------------------------------------------------------------|
E|----------------------------------------------------------------|

E|---------------|
B|---------------|
G|---------------|
D|-9p7h9p7-9-----|
A|-----------9-7-|
E|---------------|

*My First Tab*
Related for I Wanna Be Your Dog tab