Song name
# A B C D E F G H I J K L M N O P Q R S T U V W X Y Z

The Stooges - I Wanna Be Your Dog tab

"I Wanna Be Your Dog" by The Stooges

e|-------------------------------------------------------------|
B|-------------------------------------------------------------|
G|-------------------------------------------------------------|
D|--5----4----2----2-2-2-2-2-2-2-2-2-2-2-2-2-2-2---------------|
A|--5----2----2----2-2-2-2-2-2-2-2-2-2-2-2-2-2-2---------------|
E|--3----2----0----0-0-0-0-0-0-0-0-0-0-0-0-0-0-0----+12--------|

e|---------------------------------------------------------------------------------|
B|---------------------------------------------------------------------------------|
G|-12-12-12-12\11-11-11-11-9-9-9-9-9-9-9-9/12-12-12-12\11-11-11-11-9-9-9-9-9-9-9-9-|
D|-12-12-12-12\11-11-11-11-9-9-9-9-9-9-9-9/12-12-12-12\11-11-11-11-9-9-9-9-9-9-9-9-|
A|-10-10-10-10\9---9--9--9-7-7-7-7-7-7-7-7/10-10-10-10\9---9--9--9-7-7-7-7-7-7-7-7-|
E|--0----------0------0----0-----0-------0--0----------0------0----0-----0-------0-|

e|---------------------------------------------------------------------------------|
B|---------------------------------------------------------------------------------|
G|-12-12-12-12\11-11-11-11-9-9-9-9-9-9-9-9/12-12-12-12\11-11-11-11-9-9-9-9-9-9-9-9-|
D|-12-12-12-12\11-11-11-11-9-9-9-9-9-9-9-9/12-12-12-12\11-11-11-11-9-9-9-9-9-9-9-9-|
A|-10-10-10-10\9---9--9--9-7-7-7-7-7-7-7-7/10-10-10-10\9---9--9--9-7-7-7-7-7-7-7-7-|
E|--0----------0------0----0-----0-------0--0----------0------0----0-----0-------0-|

e|---------------------------------------------------------------------------------|
B|---------------------------------------------------------------------------------|
G|-12-12-12-12\11-11-11-11-9-9-9-9-9-9-9-9/12-12-12-12\11-11-11-11-9-9-9-9-9-9-9-9-|
D|-12-12-12-12\11-11-11-11-9-9-9-9-9-9-9-9/12-12-12-12\11-11-11-11-9-9-9-9-9-9-9-9-|
A|-10-10-10-10\9---9--9--9-7-7-7-7-7-7-7-7/10-10-10-10\9---9--9--9-7-7-7-7-7-7-7-7-|
E|--0----------0------0----0-----0-------0--0----------0------0----0-----0-------0-|

e|---------------------------------------------------------------------------------|
B|---------------------------------------------------------------------------------|
G|-12-12-12-12\11-11-11-11-9-9-9-9-9-9-9-9/12-12-12-12\11-11-11-11-9-9-9-9-9-9-9-9-|
D|-12-12-12-12\11-11-11-11-9-9-9-9-9-9-9-9/12-12-12-12\11-11-11-11-9-9-9-9-9-9-9-9-|
A|-10-10-10-10\9---9--9--9-7-7-7-7-7-7-7-7/10-10-10-10\9---9--9--9-7-7-7-7-7-7-7-7-|
E|--0----------0------0----0-----0-------0--0----------0------0----0-----0-------0-|

e|---------------------------------------------------------------------------------|
B|---------------------------------------------------------------------------------|
G|-12-12-12-12\11-11-11-11-9-9-9-9-9-9-9-9/12-12-12-12\11-11-11-11-9-9-9-9-9-9-9-9-|
D|-12-12-12-12\11-11-11-11-9-9-9-9-9-9-9-9/12-12-12-12\11-11-11-11-9-9-9-9-9-9-9-9-|
A|-10-10-10-10\9---9--9--9-7-7-7-7-7-7-7-7/10-10-10-10\9---9--9--9-7-7-7-7-7-7-7-7-|
E|--0----------0------0----0-----0-------0--0----------0------0----0-----0-------0-|

e|---------------------------------------------------------------------------------|
B|---------------------------------------------------------------------------------|
G|-12-12-12-12\11-11-11-11-9-9-9-9-9-9-9-9/12-12-12-12\11-11-11-11-9-9-9-9-9-9-9-9-|
D|-12-12-12-12\11-11-11-11-9-9-9-9-9-9-9-9/12-12-12-12\11-11-11-11-9-9-9-9-9-9-9-9-|
A|-10-10-10-10\9---9--9--9-7-7-7-7-7-7-7-7/10-10-10-10\9---9--9--9-7-7-7-7-7-7-7-7-|
E|--0----------0------0----0-----0-------0--0----------0------0----0-----0-------0-|

e|---------------------------------------------------------------------------|
B|---------------------------------------------------------------------------|
G|-12-12-12-12\11-11-11--11-11-11-9--9-9-9/12-12-12-12\11-11-11--11-11-11-9--|
D|-12-12-12-12\11-11-11--11-11-11-9--9-9-9/12-12-12-12\11-11-11--11-11-11-9--|
A|-10-10-10-10\9---9--9---9--9--9-7--7-7-7/10-10-10-10\9---9--9---9--9--9-7--|
E|--0----------0------0---0-------0------0--0----------0------0---0-------0--|

e|------------------------------------------------------------------------------|
B|------------------------------------------------------------------------------|
G|-12-12-12-12\11-11-11--11-11-11-9--9-9-9--12-12-12-9--9-9-9-------------------|
D|-12-12-12-12\11-11-11--11-11-11-9--9-9-9--12-12-12-9--9-9-9-12-12-12-9--9-9-9-|
A|-10-10-10-10\9---9--9---9--9--9-7--7-7-7--10-10-10-7--7-7-7-12-12-12-9--9-9-9-|
E|--0----------0------0---0-------0------0--------------------10-12-12-7--7-7-7-|

e|---------------------------------------------------------------------------------|
B|---------------------------------------------------------------------------------|
G|-------------------------------------------------9-9-9-9-9-9-9-9-9-9-9-9-9-9-9-9-|
D|-10-10-10-10-10-10-10-10-10-10-10-10-10-10-10-10-9-9-9-9-9-9-9-9-9-9-9-9-9-9-9-9-|
A|-10-10-10-10-10-10-10-10-10-10-10-10-10-10-10-10-7-7-7-7-7-7-7-7-7-7-7-7-7-7-7-7-|
E|--8--8--8--8--8--8--8--8--8--8--8--8--8--8--8--8---------------------------------|

e|---------------------------------------------------------------------------------|
B|---------------------------------------------------------------------------------|
G|-12-12-12-12\11-11-11-11-9-9-9-9-9-9-9-9/12-12-12-12\11-11-11-11-9-9-9-9-9-9-9-9-|
D|-12-12-12-12\11-11-11-11-9-9-9-9-9-9-9-9/12-12-12-12\11-11-11-11-9-9-9-9-9-9-9-9-|
A|-10-10-10-10\9---9--9--9-7-7-7-7-7-7-7-7/10-10-10-10\9---9--9--9-7-7-7-7-7-7-7-7-|
E|--0----------0------0----0-----0-------0--0----------0------0----0-----0-------0-|

e|---------------------------------------------------------------------------------|
B|---------------------------------------------------------------------------------|
G|-12-12-12-12\11-11-11-11-9-9-9-9-9-9-9-9/12-12-12-12\11-11-11-11-9-9-9-9-9-9-9-9-|
D|-12-12-12-12\11-11-11-11-9-9-9-9-9-9-9-9/12-12-12-12\11-11-11-11-9-9-9-9-9-9-9-9-|
A|-10-10-10-10\9---9--9--9-7-7-7-7-7-7-7-7/10-10-10-10\9---9--9--9-7-7-7-7-7-7-7-7-|
E|--0----------0------0----0-----0-------0--0----------0------0----0-----0-------0-|

e|---------------------------------------------------------------------------------|
B|---------------------------------------------------------------------------------|
G|-12-12-12-12\11-11-11-11-9-9-9-9-9-9-9-9/12-12-12-12\11-11-11-11-9-9-9-9-9-9-9-9-|
D|-12-12-12-12\11-11-11-11-9-9-9-9-9-9-9-9/12-12-12-12\11-11-11-11-9-9-9-9-9-9-9-9-|
A|-10-10-10-10\9---9--9--9-7-7-7-7-7-7-7-7/10-10-10-10\9---9--9--9-7-7-7-7-7-7-7-7-|
E|--0----------0------0----0-----0-------0--0----------0------0----0-----0-------0-|

e|---------------------------------------------------------------------------------|
B|---------------------------------------------------------------------------------|
G|-12-12-12-12\11-11-11-11-9-9-9-9-9-9-9-9/12-12-12-12\11-11-11-11-9-9-9-9-9-9-9-9-|
D|-12-12-12-12\11-11-11-11-9-9-9-9-9-9-9-9/12-12-12-12\11-11-11-11-9-9-9-9-9-9-9-9-|
A|-10-10-10-10\9---9--9--9-7-7-7-7-7-7-7-7/10-10-10-10\9---9--9--9-7-7-7-7-7-7-7-7-|
E|--0----------0------0----0-----0-------0--0----------0------0----0-----0-------0-|

e|---------------------------------------------------------------------------------|
B|---------------------------------------------------------------------------------|
G|-12-12-12-12\11-11-11-11-9-9-9-9-9-9-9-9/12-12-12-12\11-11-11-11-9-9-9-9-9-9-9-9-|
D|-12-12-12-12\11-11-11-11-9-9-9-9-9-9-9-9/12-12-12-12\11-11-11-11-9-9-9-9-9-9-9-9-|
A|-10-10-10-10\9---9--9--9-7-7-7-7-7-7-7-7/10-10-10-10\9---9--9--9-7-7-7-7-7-7-7-7-|
E|--0----------0------0----0-----0-------0--0----------0------0----0-----0-------0-|

e|---------------------------------------------------------------------------------|
B|---------------------------------------------------------------------------------|
G|-12-12-12-12\11-11-11-11-9-9-9-9-9-9-9-9/12-12-12-12\11-11-11-11-9-9-9-9-9-9-9-9-|
D|-12-12-12-12\11-11-11-11-9-9-9-9-9-9-9-9/12-12-12-12\11-11-11-11-9-9-9-9-9-9-9-9-|
A|-10-10-10-10\9---9--9--9-7-7-7-7-7-7-7-7/10-10-10-10\9---9--9--9-7-7-7-7-7-7-7-7-|
E|--0----------0------0----0-----0-------0--0----------0------0----0-----0-------0-|

e|---------------------------------------------------------------------------|
B|---------------------------------------------------------------------------|
G|-12-12-12-12\11-11-11--11-11-11-9--9-9-9/12-12-12-12\11-11-11--11-11-11-9--|
D|-12-12-12-12\11-11-11--11-11-11-9--9-9-9/12-12-12-12\11-11-11--11-11-11-9--|
A|-10-10-10-10\9---9--9---9--9--9-7--7-7-7/10-10-10-10\9---9--9---9--9--9-7--|
E|--0----------0------0---0-------0------0--0----------0------0---0-------0--|

e|------------------------------------------------------------------------------|
B|------------------------------------------------------------------------------|
G|-12-12-12-12\11-11-11--11-11-11-9--9-9-9--12-12-12-9--9-9-9-------------------|
D|-12-12-12-12\11-11-11--11-11-11-9--9-9-9--12-12-12-9--9-9-9-12-12-12-9--9-9-9-|
A|-10-10-10-10\9---9--9---9--9--9-7--7-7-7--10-10-10-7--7-7-7-12-12-12-9--9-9-9-|
E|--0----------0------0---0-------0------0--------------------10-12-12-7--7-7-7-|

e|---------------------------------------------------------------------------------|
B|---------------------------------------------------------------------------------|
G|-------------------------------------------------9-9-9-9-9-9-9-9-9-9-9-9-9-9-9-9-|
D|-10-10-10-10-10-10-10-10-10-10-10-10-10-10-10-10-9-9-9-9-9-9-9-9-9-9-9-9-9-9-9-9-|
A|-10-10-10-10-10-10-10-10-10-10-10-10-10-10-10-10-7-7-7-7-7-7-7-7-7-7-7-7-7-7-7-7-|
E|--8--8--8--8--8--8--8--8--8--8--8--8--8--8--8--8---------------------------------|

e|---------------------------------------------------------------------------|
B|---------------------------------------------------------------------------|
G|---------------------------------------------------------------------------|
D|--12--11h12-14-12---12-11-9---7-9-7-9-7-9-12---11h12-14-12-14-15-14-12--14-|
A|---------------------------------------------------------------------------|
E|---------------------------------------------------------------------------|

e|----------------------------------------------|
B|----------------------------------------------|
G|----------------------------------------------|
D|-7h9-7h9-7h9-12---11h12-14-11h12-14-17--14----|
A|----------------------------------------------|
E|----------------------------------------------|
Tap to rate this tab
 
# A B C D E F G H I J K L M N O P Q R S T U V W X Y Z