Song name
# A B C D E F G H I J K L M N O P Q R S T U V W X Y Z

The Stooges - Tv Eye tab

3. TV Eye-The Stooges

   Guitar-Ron Asheton

   From the Album: Funhouse

   Verse (Play This Repeatedly)

e------------------------------------------------|
B------------------------------------------------|
G--2--2--2--5---2--5--7br---2--2--5---2--2--0----|
D--0--0--0--0---0--0--0-----0--0--0---0--0--0----|
A------------------------------------------------|
E------------------------------------------------|

   Chorus (Part 1) (Play This Twice...)

e----------------------------------------------|
B----------------------------------------------|
G---2--2--2--5---2--2--5---2--2--5---2--2--0---|
D---0--0--0--0---0--0--0---0--0--0---0--0--0---|
A----------------------------------------------|
E----------------------------------------------|

   Chorus (Part 2)  (...Then Play This...)

e----------------------------------------------|
B----------------------------------------------|
G---2--2--2--5---7--7br---2--2--5---2--2--0----|
D---0--0--0--0---0--0-----0--0--0---0--0--0----|
A----------------------------------------------|
E----------------------------------------------|
                       (Then Play Part 1 once
                        again before you play
                         it all the way through)

   Solo
e---------------------------------------------------------------------------|
B-----------------------------------13----13----13b---------13-13----13-13--|
G--12--12--------12-----12----12-------14----14-----14--14--------14--------|
D--14--14--12h14-----14----14----14-----------------------------------------|
A---------------------------------------------------------------------------|
E---------------------------------------------------------------------------|
   1:47


e---------------------------------------------------------------------------|
B-----13-13----13----13-----------------------------------------------------|
G--14-------14----14----14--------------------------------------------------|
D---------------------------------10h12p10--10--12--10--12br12--10h12p10----|
A---------------------------12-12-------------------------------------------|
E---------------------------------------------------------------------------|


e---------------------------------------------------------------------------|
B---------------------------------------------------------------------------|
G----------------------2-2-2-2-2-2-2-2-------12----12-----12-14br-12----12--|
D--10----10----10-10---0-0-0-0-0-0-0-0---/14----14-----14------------14-----|
A-----12----12--------------------------------------------------------------|
E---------------------------------------------------------------------------|
   1:58


e-------------------------------------------------------------|
B-------------------------------------------------------------|
G------12-14--------------------------------------------------|
D--/14--------12--10--12--12b-12b-12br--10-------10-----------|
A------------------------------------------12-10----12----10--|
E------------------------------------------------------12-----|
   2:05


e-----------------------------------------------------|
B-----------------------------------------------------|
G-----------------------------------------------------|
D--10-12-10-12-10-12-12b--12b-12b-12br-10----10-------|
A-----------------------------------------12----12\---|
E-----------------------------------------------------|
   2:10


e--------------------------------------------------------|
B--------------------------------------------------------|
G------12-12h14p12----12-14--12h14p12----12-14-12--------|
D--/14-------------14-----------------14----------14\----|
A--------------------------------------------------------|
E--------------------------------------------------------|
   2:14


   (Repeat this Part 3 times)
e--------------------------------------------------|
B--------------------------------------------------|
G--14-14-14-17--14-14-19--14-14-17--14-14-12-------|
D--14-14-14-17--14-14-19--14-14-17--14-14-12-------|
A--12-12-12-15--12-12-17--12-12-15--12-12-10-------|
E--------------------------------------------------|
   2:17


e---------------------------------------------------------------7----------|
B---7---7---7---7---7---7---7---7---7---7---7---7---7---7---7-----7---7----|
G---9pb-9pb-9pb-9pb-9pb-9pb-9pb-9pb-9pb-9pb-9pb-9pb-9pb-9pb-9pb---9pb-9pb--|
D--------------------------------------------------------------------------|
A--------------------------------------------------------------------------|
E--------------------------------------------------------------------------|
   2:28


e---------------------------------------------------------------------------|
B--7----7---7---7---7---7---7---7---7---7-----------------------------------|
G--9pb--9pb-9pb-9pb-9pb-9pb-9pb-9pb-9pb-9pbr--------------------------------|
D---------------------------------------------------------------------------|
A--------------------------------------------7--7--7--7--7--7--7--7--7--7---|
E--------------------------------------------5--5--5--5--5--5--5--5--5--5---|
                                             (Strum this Chord Forever)

e---------------------------------------------------------------------|
B---------------------------------------------------------------------|
G---------------------------------------------------------------------|
D---7--------------------------------7--------------------------------|
A---5--7--7--7--7--7--7--7--7--7--7--5--7--7--7--7--7--7--7--7--7--7--|
E------5--5--5--5--5--5--5--5--5--5-----5--5--5--5--5--5--5--5--5--5--|
    3:03  (Play this for about 30 seconds
           then go back into the verse)


   Outro

e---------------------------------------------------------------------------|
B---------------------------------------------------------------------------|
G--------------12----12-14br-12----12v~~------------------------------------|
D---/14--12-14----14------------14-----------------------------------7\-----|
A------------------------------------------5--5--5--5--5--5--5--5----7\-----|
E--------------------------------------------------------------------5\-----|

                                                                     The End


Here is a quick guide to how I denote certain actions on the guitar

Slide up = /

Slide Down = \

Bend = b

Pre Bend = pb

Release = r

Hammer On = h

Pull Off = p

Vibrato = v

Mute = x
Tap to rate this tab
 
# A B C D E F G H I J K L M N O P Q R S T U V W X Y Z