Song name
# A B C D E F G H I J K L M N O P Q R S T U V W X Y Z

The Stooges - Skull Rings tab

Skull Rings - The Stooges

   Intro

e---------------------------------------------------|
B---------------------------------------------------|
G---------------------------------------------------|
D---2--2--4--2--5--5--7--9--2--2--4--2--5--5--7--9--|
A---2--2--4--2--5--5--7--9--2--2--4--2--5--5--7--9--|
E---0--0--2--0--3--3--5--7--0--0--2--0--3--3--5--7--|


   Main Riff (...Play this through the rest of the song...)

e---0-----------------------0-----------------------|
B---0-----------------------0-----------------------|
G---0-----------------------0-----------------------|
D---2--2--4--2--5--5--7--9--2--2--4--2--5--5--7--9--|
A---2--2--4--2--5--5--7--9--2--2--4--2--5--5--7--9--|
E---0--0--2--0--3--3--5--7--0--0--2--0--3--3--5--7--|


Tabbed by: ARIK
Any comments? - Tell me: strixen87@hotmail.com
Tap to rate this tab
# A B C D E F G H I J K L M N O P Q R S T U V W X Y Z