Song name
# A B C D E F G H I J K L M N O P Q R S T U V W X Y Z

The Stooges - Not Right tab

7. Not Right-The Stooges

   Guitars-Ron Asheton

   From the Album: The Stooges (Self Titled)


   Intro

e------------------------------------------------------------------|
B------------------------------------------------------------------|
G---------------5-------------------------------------5-5--5--2-5--|
D--7-7--7--5-7--5----7-7--7--5-7--5-----7-7--7--5-7---5-5--5--2-5--|
A--7-7--7--5-7--3----7-7--7--5-7--5-----7-7--7--5-7---3-3--3--0-3--|
E--5-5--5--3-5-------5-5--5--3-5--3-----5-5--5--3-5----------------|


e------------------------------|
B------------------------------|
G------------------------------|
D--9-9--9--7-9---8-8--8--5-8---|
A--9-9--9--7-9---8-8--8--5-8---|
E--7-7--7--5-7---6-6--6--3-6---|

   Solo 1

e-----------------------------------------------------------------|
B----------------------------------/3--5--3----3h5--3-------------|
G---4br-------2b~~~r--0h2--4--2--4---------------------4--2-2-0---|
D-----------------------------------------------------------------|
A-----------------------------------------------------------------|
E-----------------------------------------------------------------|
   0:27

e--------------------------------------------------------------------------|
B--------------------------------------------------------------------------|
G-------------------------------------------------------------7b-------7b--|
D-----------5------------5--8b~~~----7h9-7---5--/8b~--7h9-7h9----9-7h9-----|
A--/7-7-5-7---7-5----/7--------------------7-------------------------------|
E--------------------------------------------------------------------------|
   0:37

e----------------------------------------------------------------|
B----------8-----------------------------------------------------|
G--/9--7h9---9--7v---9v------------------------------------------|
D------------------------7-7-7-7h9--9--9-9-9--7h9--9--9\--/11\---|
A----------------------------------------------------------------|
E----------------------------------------------------------------|
   0:45


    Outro

e-----------------------------------------------------------------------|
B-----------------------------------------------------------------------|
G---5b~~~r---------2b~~~r---2br--0--2--5v--4--5-4---2--4--5--4--4--5-4--|
D-----------------------------------------------------------------------|
A-----------------------------------------------------------------------|
E-----------------------------------------------------------------------|
    1:18

e-------------------------------------------------------------------|
B-------------------------------------------------------------------|
G--3-4-3---2-3-2--0-0--------------5----5h7p5---5--7b-7b-7b--7b--7--|
D----------------------5h7--7--5h7---7--------7---------------------|
A-------------------------------------------------------------------|
E-------------------------------------------------------------------|
   1:27

e------------------------------------------------------------------------|
B------7b----------------------------------------------------------------|
G--9-9----9--7--7h9-7---7-7-7--7h9--7--6--7-7h9--7--6h7p6\4--4--2-4-2-4--|
D------------------------------------------------------------------------|
A------------------------------------------------------------------------|
E------------------------------------------------------------------------|
   1:34

e---------------------------------------------------------------------------|
B---------------------------------------------------------------------------|
G--4/9\4--4--2h4-4---4\2--2--0-0-0h2--2-2--2-2--4/9-9-9--10b--10b-10b-9-7---|
D---------------------------------------------------------------------------|
A---------------------------------------------------------------------------|
E---------------------------------------------------------------------------|
   1:41

e------------------------------------------------9------9b------------------|
B----------8---10b-10br--10b-10b-10b-10pbr--8h10---10-8----8-8h10-8-----8---|
G--9-7-7h9---9------------------------------------------------------7h9---7-|
D---------------------------------------------------------------------------|
A---------------------------------------------------------------------------|
E---------------------------------------------------------------------------|
   1:48

e---------------------------------------------------------------------------|
B--8h10p8-8h10-8-------8---8h10-8h10-10br-------------------8b---8-10--10b--|
G----------------9-7-9---9----------------7h9-7-----7---7-9----9------------|
D-----------------------------------------------7h9---9---------------------|
A---------------------------------------------------------------------------|
E---------------------------------------------------------------------------|
   1:54

e---------------------------------------------------------------------------|
B--10b-10b--8h10p10---8-----------------------------------------------------|
G-------------------9----------------------------------5/7-----5/7-----5h7--|
D-----------------------/11v-------/9--7h9-7h9-7h9-7h9-----7/9-----7/9------|
A-----------------------------13\-------------------------------------------|
E---------------------------------------------------------------------------|
   1:59

e------------------------------------------------------------------------|
B----------------------10v~~--10v~~--10v~~------------------10v~~--8h10--|
G--7h9v~~--8v~~--9v~~-----------------------7h9v~~--7h9v~~---------------|
D------------------------------------------------------------------------|
A------------------------------------------------------------------------|
E------------------------------------------------------------------------|
   2:05

e---------------------------------------------------------------------------|
B--8h10--8h10--10b-10b--8h10-8h10-8h10-8h10---8b~r--------8-----------------|
G-------------------------------------------9------9--7h9---9-7-7brbrbr-----|
D---------------------------------------------------------------------------|
A---------------------------------------------------------------------------|
E---------------------------------------------------------------------------|
   2:20

e---------------------------------------------------------------------------|
B---------------------------------------------------------------------------|
G--7h9-7h9-7h9-7h9v~~---7h9-7h9--------------------------------------7h9v~--|
D-------------------------------9v~-----------------------------------------|
A-----------------------------------9v~-------10v~---12-10--12/14v~---------|
E---------------------------------------10h12-------------------------------|
   2:26

e--------------------------------------------------------------------------|
B--------------------------------------------------------------------------|
G--7h9-7-----------------------------------------------5----------5h7-5h7--|
D---------9v~~--7h9p7-5-5h7v~~---5h7-5-------5v~~--5h7---7-5-5h7-----------|
A--------------------------------------7-5h7-------------------------------|
E--------------------------------------------------------------------------|
   2:34


e-------------------------------------------------------|
B-------------------------------------------------------|
G---5h7-5h7-8v~~~----8v~~~----12v~~~---9~~--12v~~~------|
D-----------------------------12v~~~---9~~--12v~~~------|
A-----------------------------10v~~~---7~~--10v~~~------|
E-------------------------------------------------------|
    2:41                        (Thats where it fades out
                                   so you get to make up
                                      your own ending.)

Here is a quick guide to how I denote certain actions on the guitar

Slide up = /

Slide Down = \

Bend = b

Pre Bend = pb

Slow Bend = sb

Release = r

Hammer On = h

Pull Off = p

Vibrato = v

Mute = x

Hold Vibrato = v~~~
Tap to rate this tab
# A B C D E F G H I J K L M N O P Q R S T U V W X Y Z