Song name
# A B C D E F G H I J K L M N O P Q R S T U V W X Y Z

The Story So Far - States And Minds tab

-----------------------------------------------------------------------------
		     States and Minds - The Story So Far
-----------------------------------------------------------------------------

Tabbed by: x3ricxblink182

Email: x3ricxblink182@aim.com

Tuning: Standard


Intro:

Guitar 1:

E|--0-xx-0-xx-0-xx-0-xx-0-0-77-xx-0-xx-77-xx-0-xx-0-0--|
B|--9-xx-5-xx-7-xx-5-xx-4h5-55-xx-5-xx-55-xx-5-xx-5/7--|
G|-----------------------------------------------------|
D|-----------------------------------------------------|
A|-----------------------------------------------------|
E|-----------------------------------------------------| x4


Guitar 2:

Palm-Muted:

E|---------------------------------------|
B|---------------------------------------|
G|---------------------------------------|
D|--444-----666--------------------------|
A|--222-222-444-222-44-66-7777777777777--|
E|------000-----000-22-44-5555555555555--| 

E|-------------------------|
B|-------------------------|
G|-------------------------|
D|--444-----666------------|
A|--222-222-444-222-44-66--|
E|------000-----000-22-44--|

E|---0-0-0~---|
B|---0-0-0~---|
G|---2-2-2~---|
D|---2-2-2~---|
A|---0-0-0~---|
E|------------|


Guitar 1:

E|--0-xx-0-xx-0-xx-0-xx-0-0-77-xx-0-xx-77-xx-0-xx-0-0--|
B|--9-xx-5-xx-7-xx-5-xx-4h5-55-xx-5-xx-55-xx-5-xx-5/7--|
G|-----------------------------------------------------|
D|-----------------------------------------------------|
A|-----------------------------------------------------|
E|-----------------------------------------------------| x4


Guitar 2:

E|---------------------------------------|
B|---------------------------------------|
G|--444-----666--------------------------|
D|--444-222-666-222-44-66-7777777777777--|
A|--222-222-444-222-44-66-7777777777777--|
E|------000-----000-22-44-5555555555555--| x3

E|-------------------------|
B|-------------------------|
G|--444-----666------------|
D|--444-222-666-222-44-66--|
A|--222-222-444-222-44-66--|
E|------000-----000-22-44--|

E|---0-0-0~---|
B|---0-0-0~---|
G|---2-2-2~---|
D|---2-2-2~---|
A|---0-0-0~---|
E|------------|




... I'm Falling In And Out Again ...

Tap to rate this tab
# A B C D E F G H I J K L M N O P Q R S T U V W X Y Z