Guitaretab - guitar tabs
Song name
# A B C D E F G H I J K L M N O P Q R S T U V W X Y Z

The Story So Far - Placeholder tab

-----------------------------------------------------------------------------
Placeholder - The Story So Far
-----------------------------------------------------------------------------

Tabbed by: x3ricxblink182

Email: x3ricxblink182@aim.com

Tuning: Standard


Intro/Verse:

E|-------------------------------------|
B|----3-3----3----3----3-3----3----3---|
G|----2-2----2----2----2-2----2----2---|
D|-00-----44---55---22-----55---44-----|
A|-------------------------------------|
E|-------------------------------------|
                                          ( x3 )
E|-------------------------------------|
B|----3-3----3----3----3-3----3----3---|
G|----2-2----2----2----2-2----2----2---|
D|--------00---22----------------------|
A|-22----------------------------------|
E|------------------33-----33---33-----|


Chorus:

E|--x-------x-------x-------x------x-------|
B|--3-------3-------3-------3------3-------|
G|--2-(x16)-2-(x16)-2-(x16)-2-(x8)-2-(x8)--|
D|--0-------x-------0-------x------2-------|
A|--x-------2-------x-------2------0-------|
E|--3-------x-------3-------x------x-------| x2

“Have to do…”

E|--x~--|
B|--3~--|
G|--2~--|
D|--0~--|
A|--x~--|
E|--3~--|


Intro/Verse:
[ Tab from: http://www.guitaretab.com/t/the-story-so-far/290636.html ]
E|-------------------------------------|
B|----3-3----3----3----3-3----3----3---|
G|----2-2----2----2----2-2----2-22-2---|
D|-00-----44---55---22-----55----------|
A|-------------------------------------|
E|-------------------------------------|
                                           ( x3 )
E|-------------------------------------|
B|----3-3----3----3------3----3----3---|
G|----2-2----2----2------2----2----2---|
D|-44-----22---44---0-0----22---44-----|
A|-------------------------------------|
E|-------------------------------------|


Chorus:

E|--x-------x-------x-------x------x-------|
B|--3-------3-------3-------3------3-------|
G|--2-(x16)-2-(x16)-2-(x16)-2-(x8)-2-(x8)--|
D|--0-------x-------0-------x------2-------|
A|--x-------2-------x-------2------0-------|
E|--3-------x-------3-------x------x-------| x2


Bridge:

“Have to…”

E|------------9-9----------|
B|------10-7---------------|
G|--7-7------7---10-7-10---|
D|-------------------------|
A|-------------------------|
E|-------------------------| x25

Chords behind it:

E|--x-------x-------x-------x--------|
B|--3-------3-------3-------3--------|
G|--2-(x16)-2-(x16)-2-(x16)-2-(x16)--|
D|--0-------0-------x-------2--------|
A|--x-------0-------2-------0--------|
E|--3-------x-------x-------x--------|


Outro:

E|------------9-9----------|
B|------10-7---------------|
G|--7-7------7---10-7-10---|
D|-------------------------|
A|-------------------------|
E|-------------------------|

E|------------9-9-----------|
B|------10-7----------------|
G|--7-7------7---10-7-10----|
D|-----------------------7~-|
A|--------------------------|
E|--------------------------|
Related for Placeholder tab
Placeholder chords by The Story So Far