Song name
# A B C D E F G H I J K L M N O P Q R S T U V W X Y Z

The Story So Far - 680 South Acoustic tab

Tabbed by: AJ032594
Email: ongjw01-uguitar@yahoo.com

Tuning: Standard

*The strumming of the the verses, choruses, and bridge are not indicated.  It's pretty easy to 
figure out by listening to a their acoustic recordings.  For the intro I have tabbed out an 
acoustic version of the full band intro but if you want to use what the band used for 
their unplugged version, then use the "Chords Alternative".

Intro:
e|--3p2---------|          |--3--2--|              |-----------------|   
B|--3----3---0--|          |--3--3--|     OR       |--3---3--3--3----|  
D|--------------| 3x then  |--------|   Chord      |---------2-------| 4x
A|--------------|          |--------| Alternative  |--2--------------|
E|--------------|          |--------|              |------------3----|

Pre-Verse and Verse 1:
e|-----------------|
B|--3---3--3--3----|
G|--2---2--2--2----|  8x
D|---------2-------|
A|--2--------------|
E|------------3----|

Chorus:
e|-----------------------|      |----------|         |--------|
B|--3--3-3---3--3-3-3-3--|      |--3--3-3--|         |--3--3--|
G|--2--2-2---2--2-2-2-2--| then |--2--2-2--| 2x then |--2--2--|
D|--------------2--------|      |----------|         |-----2--|
A|-----2------------2----|      |-----3----|         |--------|
E|--3--------3-----------|      |--3-------|         |--3-----|

Verse 2:
e|-----------------|         |-----------------------------------|
B|--3---3--3--3----|         |--3------3-------3----3---3--3--3--|
G|--2---2--2--2----| 2x then |--2-let--2-let---2----2---2--2--2--|
D|---------2-------|         |-----it--2--it---------------2-----|
A|--2--------------|         |--2-ring---ring-------2------------|
E|------------3----|         |-----------------3--------------3--|

Chorus:
e|-----------------------|      |----------|         |--------|
B|--3--3-3---3--3-3-3-3--|      |--3--3-3--|         |--3--3--|
G|--2--2-2---2--2-2-2-2--| then |--2--2-2--| 2x then |--2--2--|
D|--------------2--------|      |----------|         |-----2--|
A|-----2------------2----|      |-----3----|         |--------|
E|--3--------3-----------|      |--3-------|         |--3-----|

Bridge:
e|-----|             |--------|   
B|--3--|             |--3--3--|  
G|--2--|  About      |--2--2--|  4x  
D|-----| 13 strums   |--------|   
A|-----|    then     |--------|   
E|--3--|             |--3-----|    

Outro:
e|-----|             
B|--3--|              
G|--2--|  About      
D|-----| 9 strums    
A|-----|    
E|--3--|            

End
Tap to rate this tab
# A B C D E F G H I J K L M N O P Q R S T U V W X Y Z