Song name
# A B C D E F G H I J K L M N O P Q R S T U V W X Y Z

The Story So Far - States And Minds tab

This is my first tab, so yeah xD The original one was a little off so I touched it up a little.
The intro and verse guitars are the same except you don't palm mute anything.

Intro: Guitar 1 (0:00-0:23)

    **  **  **  **      **  **   **  ***
e|-000-000-000-000-0~~-777-000-7777-000000--|
B|-999-555-777-555-4/5-555-555-5555-555557--|
G|------------------------------------------|
D|------------------------------------------|
A|------------------------------------------|
E|------------------------------------------|x3

    **  **  **  ** 
e|-000-000-000-000-0~~-7777-4~--------------|
B|-999-555-777-555-4/5-5555-5~--------------|
G|------------------------------------------|
D|------------------------------------------|
A|------------------------------------------|
E|------------------------------------------|x1 

Intro: Guitar 2 (0:12-0:23)
   
e|------------------------------------------|
B|------------------------------------------|
G|-444-----666-----------2222222222222222---|
D|-444-222-666-222-44-66-2222222222222222---|
A|-222-222-444-222-44-66-0000000000000000---|
E|-----000-----000-22-44--------------------|x1
   *** *** *** *** ** ** ****************

e|-----------------------000~---------------|
B|-----------------------000~---------------|
G|-444-----666-----------222~---------------|
D|-444-222-666-222-44-66-222~---------------|
A|-222-222-444-222-44-66-000~---------------|
E|-----000-----000-22-44--------------------|
   *** *** *** *** ** **

Intro 2/Verse: Guitar 1 (0:23-0:51)

e|-000-000-000-000-0~~-777-000-7777-000000--|
B|-999-555-777-555-4/5-555-555-5555-555557--|
G|------------------------------------------|
D|------------------------------------------|
A|------------------------------------------|
E|------------------------------------------|x3

e|-000-000-000-000-0~~-7777-4~--------------|
B|-999-555-777-555-4/5-5555-5~--------------|
G|------------------------------------------|
D|------------------------------------------|
A|------------------------------------------|
E|------------------------------------------|x1 

Intro 2/Verse: Guitar 2 (0:23-0:51)

e|------------------------------------------|
B|------------------------------------------|
G|-444-----666-----------2222222222222222---|
D|-444-222-666-222-44-66-2222222222222222---|
A|-222-222-444-222-44-66-0000000000000000---|
E|-----000-----000-22-44--------------------|x3

e|-----------------------000~---------------|
B|-----------------------000~---------------|
G|-444-----666-----------222~---------------|
D|-444-222-666-222-44-66-222~---------------|
A|-222-222-444-222-44-66-000~---------------|
E|-----000-----000-22-44--------------------|x1

Tap to rate this tab
# A B C D E F G H I J K L M N O P Q R S T U V W X Y Z