Song name
# A B C D E F G H I J K L M N O P Q R S T U V W X Y Z

The Story So Far - Swords And Pens tab

Song for swords and pens cause you guys don't know how to do it right

Tuning:half step c#/Db
Rhythm probably for entire song but people that know how to play lead can expand on this

 intro:
 eb|--------------------------------------|
 bb|--------------------------------------|
 gb|--------------------------------------|
 db|--55xx4------------------4-9-7--------|x5
 ab|--55xx4--X3--fourth time-4-9-7--------|
 Db|--55xx4------------------4-9-7--------|

 Preverse:

 eb|----------------------------------|
 bb|----------------------------------|
 gb|----------------------------------|
 db|--55-5-44----77-7-77--99-9-77-----|
 ab|--55-5-44-x2-77-7-77--99-9-77-----|
 Db|--55-5-44----77-7-77--99-9-77-----|

verse
 eb|----------------------------------|
 bb|----------------------------------|
 gb|----------------------------------|
 db|--55-5-44----77-7-77--99-9-77-----|
 ab|--55-5-44-x2-77-7-77--99-9-77-----|
 Db|--55-5-44----77-7-77--99-9-77-----|

 eb|----------------------------------|
 bb|----------------------------------|
 gb|----------------------------------|
 db|----5~----777-999-7-5~------------|
 ab|----5~----777-999-7-5~------------|
 Db|----5~----777-999-7-5~------------|

 eb|----------------------------------|
 bb|----------------------------------|
 gb|----------------------------------|
 db|--55-5-44----77-7-77--99-9-77-----|
 ab|--55-5-44-x2-77-7-77--99-9-77-----|
 Db|--55-5-44----77-7-77--99-9-77-----|

Chorus:
 eb|----------------------------------|
 bb|----------------------------------|
 gb|----------------------------------|
 db|----5----0----9----7--------------|
 ab|----5-x4-0-x4-9-x4-7-x4-----------|
 Db|----5----0----9----7--------------|


 eb|----------------------------------|
 bb|----------------------------------|
 gb|----------------------------------|
 db|----5~----0~----7~----5~----------|
 ab|----5~----0~----7~----5~-x2-------|
 Db|----5~----0~----7~----5~----------|

Verse 2
 eb|----------------------------------|
 bb|----------------------------------|
 gb|----------------------------------|
 db|----5~----777-999-7-5~------------|x2
 ab|----5~----777-999-7-5~------------|
 Db|----5~----777-999-7-5~------------|


Chorus:
 eb|--------------------------------------|
 bb|--------------------------------------|
 gb|--------------------------------------|
 db|----5----0----9----7------------------|
 ab|----5-x4-0-x4-9-x4-7-x4---------------|
 Db|----5----0----9----7------------------|


 eb|--------------------------------------|
 bb|--------------------------------------|
 gb|--------------------------------------|
 db|----5~----0~----7~----5~--------------|
 ab|----5~----0~----7~----5~-x2-----------|
 Db|----5~----0~----7~----5~--------------|

 eb|--------------------------------------|
 bb|--------------------------------------|
 gb|--------------------------------------|
 db|----5.-5.-5.-5.-5.-5.-5.-5.-----------|
 ab|----5.-5.-5.-5.-5.-5.-5.-5.-----------|
 Db|----5.-5.-5.-5.-5.-5.-5.-5.-----------|


outro
 eb|---------------------------------------|
 bb|---------------------------------------|
 gb|---------------------------------------|
 db|--55-5-44----77-7-77--99-9-77----------|
 ab|--55-5-44-x2-77-7-77--99-9-77----------|
 Db|--55-5-44----77-7-77--99-9-77----------|


 eb|--------------------------------------|
 bb|--------------------------------------|
 gb|--------------------------------------|
 db|--55-5-44----77-7-77--99-9-77---------|
 ab|--55-5-44-x2-77-7-77--99-9-77---------|
 Db|--55-5-44----77-7-77--99-9-77---------|
Tap to rate this tab
# A B C D E F G H I J K L M N O P Q R S T U V W X Y Z