Song name
# A B C D E F G H I J K L M N O P Q R S T U V W X Y Z

The Story So Far - Face Value tab

-------------------------------------------------------------------------------
                             The Story So Far - Face Value
-------------------------------------------------------------------------------
Tabbed by: Sam Lara (TheStorySoFar23)

A great song by my favourite band, The Story So Far!

This is my first tab so please bare with me as I work this all out.

Tuning: Drop D


Intro - X4

e|-------------------------------------------------------------------------------|
B|-------------------------------------------------------------------------------|
G|-------------------------------------------------------------------------------|
D|-11--11--x--x--11--11---x--11--11----------------------------------------------|  X4
A|-9---9---x--x--9---9----x--9---9-----------------------------------------------|
E|-9---9---x--x--9---9----x--9---9-----------------------------------------------|

Verse 1. 'I let the furnace of my anger heat where you lie...'

Play this palm muted.

e|-------------------------------------------------------------------------------|
B|-------------------------------------------------------------------------------|
G|-------------------------------------------------------------------------------|
D|-1-------4------9-----------1------11-----6------------------------------------|   X2
A|-1--X8---4-X6---9-X12------1--X8--11-X4--6-X12---------------------------------|
E|-1-------4------9-----------1------11-----6------------------------------------|

Pre-Chorus. 'How many times did I....'

e|-------------------------------------------------------------------------------|
B|-------------------------------------------------------------------------------|
G|-------------------------------------------------------------------------------|
D|-11----------------------------------------------------------------------------|
A|-9---Let Ring------------------------------------------------------------------|
E|-9-----------------------------------------------------------------------------|

Chorus 1. 'Is it so hard to...'

e|------------------------------------------------------------------------------|
B|------------------------------------------------------------------------------|
G|------------------------------------------------------------------------------|
D|-11-----11------1-----6------11------11---------------4-----------------------|  X2
A|-9--X8--9---X8--1-X8--4-X8---9--X8---9--X8---9--X8---4--X8--------------------|
E|-9------8--------1-----4------9-------8-------6-------4-----------------------|

Verse 2. 'You play the rolls in my fate...'

This verse is the same as verse 1, the only difference is the timing and how many times
you strum the first bar as the song goes off beat for this section.

Chorus 2.

Just repeat chorus 1 twice.

After Chorus 2, repeat the intro.

Bridge part 1. 'All of the pans that you made...'

e|--------------------------------------------------------------------------------|
B|--------------------------------------------------------------------------------|
G|--------------------------------------------------------------------------------|
D|-4-----6------11--11-x-x--11--11-x--11----6------11-11-x-x-11--11-x-11----------|  X2
A|-4-X4--6-X4---9---9--x-x--9---9--x--9-----6--X8--9--9--x-x-9----9--x-9----------|
E|-4-----6------9---9---x-x--9--9---x-9-----6-------9--9--x-x-9----9--x-9---------|

Bridge Part 2.

Leave this chord to ring whilst the bass continues.

e|-------------------------------------------------------------------------------|
B|-------------------------------------------------------------------------------|
G|-------------------------------------------------------------------------------|
D|-11----------------------------------------------------------------------------|
A|-9---Let Ring------------------------------------------------------------------|
E|-8-----------------------------------------------------------------------------|

Once everything kicks back in.

These are definitely the right notes, however, I'm not 100% certain how many times your
strum each not. I think this is reasonably close, but I'm sure you can get the gist of it.

e|--------------------------------------------------------------------------------|
B|--------------------------------------------------------------------------------|
G|--------------------------------------------------------------------------------|
D|-11-----------------------------------------------------------------------------|   X2
A|-9--X4--9--X2----X4----X2---X2---X8---X8----------------------------------------|
E|-8------11-----4------6----4----1----4------------------------------------------|

Chorus 3.

Play the same as chorus 2.

Outro.

The outro is the same as the intro.


I hope these have helped you.

Thanks for checking out my tabs, I'd appreciate any feedback or ratings!
Tap to rate this tab
# A B C D E F G H I J K L M N O P Q R S T U V W X Y Z