Song name
# A B C D E F G H I J K L M N O P Q R S T U V W X Y Z

The Story So Far - Things I Cant Change tab

Things I Can't Change by The Story So Far
Half Step Down
x:Muted

Done by ear and watching covers on youtube
Let me know if anything is off

For the rest of the songs off the album go to
http://www.youtube.com/user/PopPunkGuitarCovers
He has the songs I didn't put up tabbed and videos with them

Intro + Verses
|-0-0-0-0-0--0--0-0--0-0--|---------|
|-9-7-2-5-12-14-9-12-9-12-|---------|That's the little
|-------------------------|---------|riff before the
|-------------------------|---------|chorus
|-------------------------|-7-7-7-7-|
|-------------------------|-4-4-5-4-|

Chorus
Rhythm part
|------------------------------------------------|
|------------------------------------------------|
|-2-2-2-2-2-2--6-6----------2--2-2-2-6-6-6-4-4-4-|
|-2-2-2-2-2-2--6-6-6-6-2222-2--2-2-2-6-6-6-4-4-4-|
|-0-0-0-0-0-0--4-4-6-6-2222-0--0-0-0-4-4-4-2-2-2-|
|------------------4-4-0000----------------------|
                       xxxx

 Lead Part       Every 4th time do this
|-0-------0-0-0-|-0-------0-0--0-0--0--|
|-0h2\5\7-9-7-5-|-0h2\5\7-1212-1414-12-|
|---------------|----------------------|
|---------------|----------------------|
|---------------|----------------------|
|---------------|----------------------|

Verse
|-0-0-0-0-0--0--0-0--0-0--|---5----5---------------|
|-9-7-2-5-12-14-9-12-9-12-|--5----5----------------|
|-------------------------|-2----2---2222-2222-222-|
|-------------------------|----------2222-2222-222-|
|-------------------------|----------0000-0000-000-|
|-------------------------|------------------------|
                                     xxx  xxx  xx
Chorus Again
Rhythm part
|------------------------------------------------|
|------------------------------------------------|
|-2-2-2-2-2-2--6-6----------2--2-2-2-6-6-6-4-4-4-|
|-2-2-2-2-2-2--6-6-6-6-2222-2--2-2-2-6-6-6-4-4-4-|
|-0-0-0-0-0-0--4-4-6-6-2222-0--0-0-0-4-4-4-2-2-2-|
|------------------4-4-0000----------------------|
                       xxxx

 Lead Part       Every 4th time do this
|-0-------0-0-0-|-0-------0-0--0-0--0--|
|-0h2\5\7-9-7-5-|-0h2\5\7-1212-1414-12-|
|---------------|----------------------|
|---------------|----------------------|
|---------------|----------------------|
|---------------|----------------------|


Bridge
|-------------|-----------------0-0-0-0--0--0--0-0--0-0--0--|
|-------------|-----------------9-7-9-12-12-12-1212-1414-12-|
|-2--6--4-----|---------------------------------------------|
|-2--6--4--4--|---------------------------------------------|
|-0--4--2--4--|-7777-7777-777-------------------------------|
|----------2--|-5555-5555-555-------------------------------|
                xxx  xxx  xx 

Chorus Again
Rhythm part
|------------------------------------------------|
|------------------------------------------------|
|-2-2-2-2-2-2--6-6----------2--2-2-2-6-6-6-4-4-4-|
|-2-2-2-2-2-2--6-6-6-6-2222-2--2-2-2-6-6-6-4-4-4-|
|-0-0-0-0-0-0--4-4-6-6-2222-0--0-0-0-4-4-4-2-2-2-|
|------------------4-4-0000----------------------|
                       xxxx

 Lead Part       Every 4th time do this
|-0-------0-0-0-|-0-------0-0--0-0--0--|
|-0h2\5\7-9-7-5-|-0h2\5\7-1212-1414-12-|
|---------------|----------------------|
|---------------|----------------------|
|---------------|----------------------|
|---------------|----------------------|
Tap to rate this tab
# A B C D E F G H I J K L M N O P Q R S T U V W X Y Z