Song name
# A B C D E F G H I J K L M N O P Q R S T U V W X Y Z

The Story So Far - Face Value tab

Face Value by The Story So Far
Half Step Down

Done by ear and watching covers on youtube
This one's pretty weak so sorry if you find stuff off
If enough people gimme input on what could be different then I'll redo it

For the rest of the songs off the album go to
http://www.youtube.com/user/PopPunkGuitarCovers
He has the songs I didn't put up tabbed and videos with them

Intro
|-------------------------|------------------------------|
|-------------------------|------------------------------|
|-5-5-xxxxx-5-5-xxxx5xxxx-|-12-12-xxxxx-12-12-xxxx12xxxx-|
|-5-5-xxxxx-5-5-xxxx5xxxx-|-12-12-xxxxx-12-12-xxxx12xxxx-|
|-3-3-xxxxx-3-3-xxxx3xxxx-|-10-10-xxxxx-10-10-xxxx10xxxx-|
|-------------------------|------------------------------|

Verse
|------5---------------10-----10-----------5--------------10---10h12p10------|
|----3---3---3-------8----8------8-------3---3---3------8----8----------10/8-|
|-2--------2------7---------7------7---2-------2------7----------------------|
|----------------------------------------------------------------------------|
|----------------------------------------------------------------------------|
|----------------------------------------------------------------------------|

Pre-Chorus
|-7777777777777777-|
|-8888888888888888-|
|------------------|
|------------------|
|------------------|
|------------------|

Chorus
|-0-------------0-0-0-0-0-0-0-0--|-0-0-0-0-0-0-0-0-0-000000-----------------------------------|
|-2p0h2\5p0h5\7-1212121212121212-|-151515121212101010888888-or--------------------------------|
|--------------------------------|-----------------------------191919161616141414121212121212-|
|--------------------------------|------------------------------------------------------------|
|--------------------------------|-----------------------------171717141414121212101010101010-|
|--------------------------------|------------------------------------------------------------|

Verse
|------5---------------10-----10-----------5--------------10---10h12p10------|
|----3---3---3-------8----8------8-------3---3---3------8----8----------10/8-|
|-2--------2------7---------7------7---2-------2------7----------------------|
|----------------------------------------------------------------------------|
|----------------------------------------------------------------------------|
|----------------------------------------------------------------------------|

Chorus
|-0-------------0-0-0-0-0-0-0-0--|-0-0-0-0-0-0-0-0-0-000000-----------------------------------|
|-2p0h2\5p0h5\7-1212121212121212-|-151515121212101010888888-or--------------------------------|
|--------------------------------|-----------------------------191919161616141414121212121212-|
|--------------------------------|------------------------------------------------------------|
|--------------------------------|-----------------------------171717141414121212101010101010-|
|--------------------------------|------------------------------------------------------------|

Bridge
|-------------------------|------------------------------|
|-------------------------|------------------------------|
|-5-5-xxxxx-5-5-xxxx5xxxx-|-12-12-xxxxx-12-12-xxxx12xxxx-|
|-5-5-xxxxx-5-5-xxxx5xxxx-|-12-12-xxxxx-12-12-xxxx12xxxx-|
|-3-3-xxxxx-3-3-xxxx3xxxx-|-10-10-xxxxx-10-10-xxxx10xxxx-|
|-------------------------|------------------------------|

|-3\5\7--p0h5p0h12p0h10p0h10p3----3\5\7-0h2\4--3\5\7-|
|----------------------------------------------------|
|----------------------------------------------------|
|----------------------------------------------------|
|----------------------------------------------------|
|----------------------------------------------------|

|------------------------------------------------|
|------------------------------------------------|
|-12121212121219191914141412121414555555---------|
|---------------------------------55555555555555-|
|-1010101010101717171212121010121233333355555555-|
|---------------------------------------33333333-|
 

Last Chorus
|-0-------------0-0-0-0-0-0-0-0--|-0-0-0-0-0-0-0-0-0-000000-----------------------------------|
|-2p0h2\5p0h5\7-1212121212121212-|-151515121212101010888888-or--------------------------------|
|--------------------------------|-----------------------------191919161616141414121212121212-|
|--------------------------------|------------------------------------------------------------|
|--------------------------------|-----------------------------171717141414121212101010101010-|
|--------------------------------|------------------------------------------------------------|

Outro
|-------------------------|------------------------------|
|-------------------------|------------------------------|
|-5-5-xxxxx-5-5-xxxx5xxxx-|-12-12-xxxxx-12-12-xxxx12xxxx-|
|-5-5-xxxxx-5-5-xxxx5xxxx-|-12-12-xxxxx-12-12-xxxx12xxxx-|
|-3-3-xxxxx-3-3-xxxx3xxxx-|-10-10-xxxxx-10-10-xxxx10xxxx-|
|-------------------------|------------------------------|
Tap to rate this tab
# A B C D E F G H I J K L M N O P Q R S T U V W X Y Z