Song name
# A B C D E F G H I J K L M N O P Q R S T U V W X Y Z

The Story So Far - Loro tab

1st guitar part(played throughout whole song)

E|----------------------------------------------------------------|
B|----------------------------------------------------------------|
G|7---7---7---7---5---5---5---5---3---3---3---3---5---5---5---5---|
D|--3---3---3---3---3---3---3---3---3---3---3---3---3---3---3---3-|
A|----------------------------------------------------------------|
E|----------------------------------------------------------------|

E|----------------------------------------------------------------|
B|----------------------------------------------------------------|
G|2---2---2---2---2---2---2---2---2---2---2---2---2---2---2---2---|
D|--3---3---3---3---3---3---3---3---3---3---3---3---3---3---3---3-|
A|----------------------------------------------------------------|
E|----------------------------------------------------------------|

======================================================================

2nd Guitar part(comes in after 1 measures, you can hear it by sound, itll be played off 
and on throughout song, mostly in "do do do" vocal area.)

E|----------------------------------------------------------------|
B|--4---4---4---4---4---4---4---4---4---4---4---4---4---4---4---4-|
G|5---5---5---5---5---5---5---5---5---5---5---5---5---5---5---5---|
D|----------------------------------------------------------------|
A|----------------------------------------------------------------|
E|----------------------------------------------------------------|

E|3---3---3---3~4-----------------3---3---3---3~4-----------------|
B|----------------4---4---4---4---------------------4---4---4---4-|
G|----------------------------------------------------------------|
D|----------------------------------------------------------------|
A|----------------------------------------------------------------|
E|----------------------------------------------------------------|
=========================================================================

"~" stands for slide,but it can also be hammered on.

Enjoy!
Tap to rate this tab
# A B C D E F G H I J K L M N O P Q R S T U V W X Y Z