Song name
# A B C D E F G H I J K L M N O P Q R S T U V W X Y Z

The Strypes - Mystery Man tab

-----------------------------------------------------------------------------
                             MYSTERY MAN - The Strypes
-----------------------------------------------------------------------------
Tabbed by:juliafinch45
E-mail:juliafinch45@gmail.com

Tuning: standard

Intro:

e|---------------------------------------------------|
B|---------------------------------------------------|
G|---------------------------------------------------|
D|--5------3-3-5--5------3-3-5-5------3-3-5----------|
A|--5--3-5--5-----5--3-5--5----5--3-5--5-----3-3-4-5-|
E|--3-------------3------------3---------------------|

Verse 1:

e|------------------------------------------------------------------------|
B|----5-3---------5-3---------5-3---------5-3-----1-1---1-1-1---1---5-3---|
G|--4-5-3------44-5-3------44-5-3------44-5-3-----3-3---3-3-3---3-4-5-3---|
D|--5-5-3-5----55-5-3-5----55-5-3-5----55-5-3-5---2-2---2-2-2---2-5-5-3-5-|
A|--5----------55----------55----------55---------3-3---3-3-3---3-5-------|
E|--3----------33----------33----------33-------------------------3-------|

e|-----------|
B|-----5-----|
G|--44-5-3-4-|
D|--55-5-----|
A|--55-------|
E|--33-------|

Chorus:
-Guitar 1(chords): D7*-C7-D7-C7-D7-C7              (*D7: x-5-4-5-3-x)
-Guitar 2: 
e|-----------------------------------|
B|-----------------------------------|
G|-----------------------------------|
D|-----------------------------------|
A|--3-5---3----3-5---3----3-5---5-4-3|
E|-----------------------------------|

-Both:
e|---------------------------------------------|
B|--11-11-11-11-10-10-10-10--------------------|
G|--------------------------4------------------|
D|--------------------------5----3-3-5---------|
A|--------------------------5-3-5-5----3-3-4-5-|
E|--------------------------3------------------|

Repeat verse 1. 

Solo break at 0:32 (I ain t trying to fill you with doubt)
(b=full bend br=bend and release h=hammer-on p=pull-off v=vibrato /=slide up)

e|-------------------------|
B|-------------------------|
G|--5br-3-5-3h4------------|
D|---------------5p3---3-5-|
A|-------------------5-----|
E|-------------------------|

Solo break at 0:36 (so you ve just gotta figure me out)
e|--------3-----3-6p3---3----|
B|------3---6b8-------6---6b8|
G|--5b7----------------------|
D|---------------------------|
A|---------------------------|
E|---------------------------|

Repeat chorus.
Solo guitar at 0:50 (I separated it into a few parts to make it easier to learn)
e|-----------|-------3---3-6p3---3-----|-3------------------|
B|-----------|-----3--6b8------6---6b8-|--6p3---------------|
G|-5br-3--3--|-5b7---------------------|-----5-3-3--3--3-3v-|
D|-------5---|-------------------------|-----------5--5-----|
A|-----------|-------------------------|--------------------|
E|-----------|-------------------------|--------------------|

e|------------|6-8-8br-8p6-6----------------------------|
B|---6-8-8-6-8|-----------8-8--/6-----------------------|
G|-/7---------|------------------5br-3-5-5br-3-5p3-3----|
D|------------|-----------------------------------5-----|
A|------------|-----------------------------------------|
E|------------|-----------------------------------------|

 |---repeat twice---| 
e|-------------6-8br|-------------6-8-8br|-------------------------|
B|----6-6-6-6-8-----|---6-6--6-6-8-------|-11-11-11-11-10-10-10-10-|
G|-/7----7-7--------|-/7----7-7----------|-------------------------|
D|------------------|--------------------|-------------------------|
A|------------------|--------------------|-------------------------|
E|------------------|--------------------|-------------------------|

e|---------------------|
B|---------------------|
G|--4------------------|
D|--5----3-3-5---------|
A|--5-3-5-5----3-3-4-5-|
E|--3------------------|

Repeat chorus.
(Harmonica solo, guitar plays verse 1)

1:53 G  A A# B C A
Chorus (at the end, repeat the last bar four times)
Guitar ends like this:

e|-----------------------|
B|-----------------------|
G|--4-------------------4|
D|--5----3-3-5-5p3-3-5--5|
A|--5-3-5-5-------5-----5|
E|--3-------------------3|
Tap to rate this tab
# A B C D E F G H I J K L M N O P Q R S T U V W X Y Z