Song name
# A B C D E F G H I J K L M N O P Q R S T U V W X Y Z

The Stunning - Town For Sale tab

  Q=80
 4/4
  Gtr I
|-2----0----|-0-0-3-----------|-2----0----|-0-0-3------------|
|-3----1----|-1-1-0-----------|-3----1----|-1-1-0------------|
|-2----2----|-0-2-0-------0h2-|-2----2----|-0-2-0-------0h2--|
|-0----2----|-2-2-0---0h2-----|-0----2----|-2-2-0---0h2------|
|------0----|-3-0-2-----------|------0----|-3-0-2------------|
|-----------|-----3-----------|-----------|-----3------------|


|-2----0----|-0-0-3-----------|-2----0----|-0-0-3-----------|
|-3----1----|-1-1-0-----------|-3----1----|-1-1-0-----------|
|-2----2----|-0-2-0-------0h2-|-2----2----|-0-2-0-------0h2-|
|-0----2----|-2-2-0---0h2-----|-0----2----|-2-2-0---0h2-----|
|------0----|-3-0-2-----------|------0----|-3-0-2-----------|
|-----------|-----3-----------|-----------|-----3-----------|


|-2----0----|-0-0-3-----------|-2----0----|-0-0-3-----------|
|-3----1----|-1-1-0-----------|-3----1----|-1-1-0-----------|
|-2----2----|-0-2-0-------0h2-|-2----2----|-0-2-0-------0h2-|
|-0----2----|-2-2-0---0h2-----|-0----2----|-2-2-0---0h2-----|
|------0----|-3-0-2-----------|------0----|-3-0-2-----------|
|-----------|-----3-----------|-----------|-----3-----------|


|-2----0----|-0-0-3-------|-2---------0---------|-0--0--3-------------|
|-3----1----|-1-1-0-------|-3---------1---------|-1--1--0-------------|
|-2----2----|-0-2-0-------|-2---------2---------|-0--2--0---------0h2-|
|-0----2----|-2-2-0-------|-0---------2---------|-2--2--0-----0h2-----|
|------0----|-3-0-2-------|-----------0---------|-3--0--2-------------|
|-----------|-----3-------|---------------------|-------3-------------|
|
| Gtr II
|-----------|-------------|---------------------|---------------------|
|-----------|-------------|---------------------|---------------------|
|-----------|-------------|---------------------|---------------------|
|-----------|-------------|---------------------|------10-----7-5-----|
|-----------|-------------|-5-5-5-7-5-----------|---10------7---5-----|
|-----------|-------------|-----------5-5-5-7-5-|-8-------5-----3-----|


|-2---------0---------|-0-------0-----3-----------|
|-3---------1---------|-1-------1-----0-----------|
|-2---------2---------|-0-------2-----0-------0h2-|
|-0---------2---------|-2-------2-----0---0h2-----|
|-----------0---------|-3-------0-----2-----------|
|---------------------|---------------3-----------|
|
|---------------------|---------------------------|
|---------------------|---------------------------|
|---------------------|---------------------------|
|---------------------|------10-----7-5-----------|
|-5-5-5-7-5-----------|---10------7---5-----------|
|-----------5-5-5-7-5-|-8-------5-----3-----------|


|-2----0----|-0-0-3------------|
|-3----1----|-1-1-0------------|
|-2----2----|-0-2-0-------0h2--|
|-0----2----|-2-2-0---0h2------|
|------0----|-3-0-2------------|
|-----------|-----3------------|
|
|-----------|------------------|
|-----------|------------------|
|-----------|------------------|
|-----------|------------------|
|-----------|------------------|
|-----------|------------------|


|-2----0----|-0-0-3-----------|-2----0----|-0-0-3-----------|
|-3----1----|-1-1-0-----------|-3----1----|-1-1-0-----------|
|-2----2----|-0-2-0-------0h2-|-2----2----|-0-2-0-------0h2-|
|-0----2----|-2-2-0---0h2-----|-0----2----|-2-2-0---0h2-----|
|------0----|-3-0-2-----------|------0----|-3-0-2-----------|
|-----------|-----3-----------|-----------|-----3-----------|


|-2----0----|-0-0-3------|-2---------0---------|-0-------0-----3-------------|
|-3----1----|-1-1-0------|-3---------1---------|-1-------1-----0-------------|
|-2----2----|-0-2-0------|-2---------2---------|-0-------2-----0-------0h2---|
|-0----2----|-2-2-0------|-0---------2---------|-2-------2-----0---0h2-------|
|------0----|-3-0-2------|-----------0---------|-3-------0-----2-------------|
|-----------|-----3------|---------------------|---------------3-------------|
|
|   Gtr II
|-----------|------------|---------------------|-----------------------------|
|-----------|------------|---------------------|-----------------------------|
|-----------|------------|---------------------|-----------------------------|
|-----------|------------|---------------------|------10-----7-5-------------|
|-----------|------------|-5-5-5-7-5-----------|---10------7---5-------------|
|-----------|------------|-----------5-5-5-7-5-|-8-------5-----3-------------|


|-2---------0---------|-0-------0-----3-----------|
|-3---------1---------|-1-------1-----0-----------|
|-2---------2---------|-0-------2-----0-------0h2-|
|-0---------2---------|-2-------2-----0---0h2-----|
|-----------0---------|-3-------0-----2-----------|
|---------------------|---------------3-----------|
|
|---------------------|---------------------------|
|---------------------|---------------------------|
|---------------------|---------------------------|
|---------------------|------10-----7-5-----------|
|-5-5-5-7-5-----------|---10------7---5-----------|
|-----------5-5-5-7-5-|-8-------5-----3-----------|


|-2---------0---------|-0-------0-----3------------|
|-3---------1---------|-1-------1-----0------------|
|-2---------2---------|-0-------2-----0-------0h2--|
|-0---------2---------|-2-------2-----0---0h2------|
|-----------0---------|-3-------0-----2------------|
|---------------------|---------------3------------|
|
|---------------------|----------------------------|
|---------------------|----------------------------|
|---------------------|----------------------------|
|---------------------|------10-----7-5------------|
|-5-5-5-7-5-----------|---10------7---5------------|
|-----------5-5-5-7-5-|-8-------5-----3------------|


|-2---------0---------|-0-------0-----3-----------|
|-3---------1---------|-1-------1-----0-----------|
|-2---------2---------|-0-------2-----0-------0h2-|
|-0---------2---------|-2-------2-----0---0h2-----|
|-----------0---------|-3-------0-----2-----------|
|---------------------|---------------3-----------|
|
|---------------------|---------------------------|
|---------------------|---------------------------|
|---------------------|---------------------------|
|---------------------|------10-----7-5-----------|
|-5-5-5-7-5-----------|---10------7---5-----------|
|-----------5-5-5-7-5-|-8-------5-----3-----------|


|-----|
|-----|
|-----|
|-----|
|-----|
|-----|


|-2---------0---------|-0-------0-----3-----------|
|-3---------1---------|-1-------1-----0-----------|
|-2---------2---------|-0-------2-----0-------0h2-|
|-0---------2---------|-2-------2-----0---0h2-----|
|-----------0---------|-3-------0-----2-----------|
|---------------------|---------------3-----------|
|
| Gtr II
|---------------------|---------------------------|
|---------------------|---------------------------|
|---------------------|---------------------------|
|---------------------|------10-----7-5-----------|
|-5-5-5-7-5-----------|---10------7---5-----------|
|-----------5-5-5-7-5-|-8-------5-----3-----------|


|-2---------0---------|-0-------0-----3------------|
|-3---------1---------|-1-------1-----0------------|
|-2---------2---------|-0-------2-----0-------0h2--|
|-0---------2---------|-2-------2-----0---0h2------|
|-----------0---------|-3-------0-----2------------|
|---------------------|---------------3------------|
|
|---------------------|----------------------------|
|---------------------|----------------------------|
|---------------------|----------------------------|
|---------------------|------10-----7-5------------|
|-5-5-5-7-5-----------|---10------7---5------------|
|-----------5-5-5-7-5-|-8-------5-----3------------|


|-2---------0---------|-0-------0-----3-----------|
|-3---------1---------|-1-------1-----0-----------|
|-2---------2---------|-0-------2-----0-------0h2-|
|-0---------2---------|-2-------2-----0---0h2-----|
|-----------0---------|-3-------0-----2-----------|
|---------------------|---------------3-----------|
|
|---------------------|---------------------------|
|---------------------|---------------------------|
|---------------------|---------------------------|
|---------------------|------10-----7-5-----------|
|-5-5-5-7-5-----------|---10------7---5-----------|
|-----------5-5-5-7-5-|-8-------5-----3-----------|


|-2---------0---------|-0-------0-----3------------|
|-3---------1---------|-1-------1-----0------------|
|-2---------2---------|-0-------2-----0-------0h2--|
|-0---------2---------|-2-------2-----0---0h2------|
|-----------0---------|-3-------0-----2------------|
|---------------------|---------------3------------|
|
|---------------------|----------------------------|
|---------------------|----------------------------|
|---------------------|----------------------------|
|---------------------|------10-----7-5------------|
|-5-5-5-7-5-----------|---10------7---5------------|
|-----------5-5-5-7-5-|-8-------5-----3------------|


|-----|
|-----|
|-----|
|-----|
|-----|
|-----|


|-------------3--|----------------|-------------3--|----------------|
|-----3-------3--|-----3------3---|-----3-------3--|-----3------3---|
|---2---2---0----|---2-2----0---2-|---2---2---0----|---2-2----0---2-|
|-0--------------|----------------|-0--------------|----------------|
|---------3------|-2------0-------|---------3------|-2------0-------|
|----------------|----------------|----------------|----------------|


|-------------3--|----------------|-------------3--|----------------|
|-----3-------3--|-----3------3---|-----3-------3--|-----3------3---|
|---2---2---0----|---2-2----0---2-|---2---2---0----|---2-2----0---2-|
|-0--------------|----------------|-0--------------|----------------|
|---------3------|-2------0-------|---------3------|-2------0-------|
|----------------|----------------|----------------|----------------|


|-------------3--|----------------|-------------3--|----------------|
|-----3-------3--|-----3------3---|-----3-------3--|-----3------3---|
|---2---2---0----|---2-2----0---2-|---2---2---0----|---2-2----0---2-|
|-0--------------|----------------|-0--------------|----------------|
|---------3------|-2------0-------|---------3------|-2------0-------|
|----------------|----------------|----------------|----------------|


|-------------3--|----------------|--------|
|-----3-------3--|-----3------3---|--------|
|---2---2---0----|---2-2----0---2-|--------|
|-0--------------|----------------|--------|
|---------3------|-2------0-------|--------|
|----------------|----------------|--------|


|-2---------0---------|-0-------0-----3-----------|
|-3---------1---------|-1-------1-----0-----------|
|-2---------2---------|-0-------2-----0-------0h2-|
|-0---------2---------|-2-------2-----0---0h2-----|
|-----------0---------|-3-------0-----2-----------|
|---------------------|---------------3-----------|
|
| Gtr II
|---------------------|---------------------------|
|---------------------|---------------------------|
|---------------------|---------------------------|
|---------------------|------10-----7-5-----------|
|-5-5-5-7-5-----------|---10------7---5-----------|
|-----------5-5-5-7-5-|-8-------5-----3-----------|


|-2---------0---------|-0-------0-----3------------|
|-3---------1---------|-1-------1-----0------------|
|-2---------2---------|-0-------2-----0-------0h2--|
|-0---------2---------|-2-------2-----0---0h2------|
|-----------0---------|-3-------0-----2------------|
|---------------------|---------------3------------|
|
|---------------------|----------------------------|
|---------------------|----------------------------|
|---------------------|----------------------------|
|---------------------|------10-----7-5------------|
|-5-5-5-7-5-----------|---10------7---5------------|
|-----------5-5-5-7-5-|-8-------5-----3------------|


|-2---------0---------|-0-------0-----3-----------|
|-3---------1---------|-1-------1-----0-----------|
|-2---------2---------|-0-------2-----0-------0h2-|
|-0---------2---------|-2-------2-----0---0h2-----|
|-----------0---------|-3-------0-----2-----------|
|---------------------|---------------3-----------|
|
|---------------------|---------------------------|
|---------------------|---------------------------|
|---------------------|---------------------------|
|---------------------|------10-----7-5-----------|
|-5-5-5-7-5-----------|---10------7---5-----------|
|-----------5-5-5-7-5-|-8-------5-----3-----------|


|-2---------0---------|-0-------0-----3------------|
|-3---------1---------|-1-------1-----0------------|
|-2---------2---------|-0-------2-----0-------0h2--|
|-0---------2---------|-2-------2-----0---0h2------|
|-----------0---------|-3-------0-----2------------|
|---------------------|---------------3------------|
|
|---------------------|----------------------------|
|---------------------|----------------------------|
|---------------------|----------------------------|
|---------------------|------10-----7-5------------|
|-5-5-5-7-5-----------|---10------7---5------------|
|-----------5-5-5-7-5-|-8-------5-----3------------|



Tap to rate this tab
# A B C D E F G H I J K L M N O P Q R S T U V W X Y Z