Song name
# A B C D E F G H I J K L M N O P Q R S T U V W X Y Z

The Stunning - Brewing Up A Storm tab

this is my first tab and i just want to show you how brewing up a storm is really 
the walls use chords throughout the song and its easy enough to learn
Have fun learning.:D

Email: carlmdaly@hotmail.com

Intro
----------------------------|
----------------------------|
---2-----0----0--------2----|
----2-----------0-----------|
-0-----3------------2-------|
------------3---------------| play 4 times, then drums and other instruments join in. 
play 4 more times.

Verse
-0000-0000-0000-0000-----|
-0000-3333-0000-3333-----|
-2222-0000-0000-0000-----|
-2222-2222-2222-0000-----|
-0000-3333-2222-2222-----| play 6 times then the intro once.
-----------0000-3333-----|

Chorus
-000-000-2-22-222------|
-000-333-3-33-222------|
-222-000-2-22-333------|
-222-222-0-00-000------|
-000-333---------------|
-----------------------| play five times then intro four twice, then verse 6 times.

Solo
-------------------------|
--------------------6----|
7-7-5-7-7-5-7-7-5-7------|
-------------------------|
-------------------------|
-------------------------| play twice


thats it really. not too hard
Tap to rate this tab
# A B C D E F G H I J K L M N O P Q R S T U V W X Y Z