Guitaretab - guitar tabs
Song name
# A B C D E F G H I J K L M N O P Q R S T U V W X Y Z

The Stunning - Mr Ginger tab

Main Verse Riff:

E|--5-5--8--8--10----10----|
B|--5-5--8--8--10----10-10-|
G|--5-5--9--9--11-------11-|
D|--7-7--10-10-12-12-------|
A|--7-7--10-10-12-12-------|
E|--5-5--8--8--10-10-------|


   good, good, good afternoon...
E|--5----8-----10---------------|
B|--5----8-----10---------------|
G|--5----9-----11---------------|
D|--7----10----12---------------|
A|--7----10----12---------------|
E|--5----8-----10---------------|


Pre Chorus:
    and when...
E|--5-5----8-8----10-10-----8-8---|
B|--5--5---8--8---10--10----8--8--|
G|--5---5--9---9--11----11--9---9-|
D|--------------------------------|
A|--------------------------------|
E|--------------------------------|

Chorus:same as verse

Solo:

E|-----------------------------------x-------------------------------------|
B|-----------------------------------x--5^(7)vv[7]p5----5^(7)--[7]p-5------|
G|---------------------------------------------------7---------------7-----|
D|--------------------5vv-----5-7vv----------------------------------------|
A|------------5vv-5-7-------7----------------------------------------------|
E|--5--5--5-8--------------------------------------------------------------|


  ^Play twice then:

[ Tab from: http://www.guitaretab.com/t/the-stunning/92241.html ]
E|---------------------------------------5-5-5----|
B|---------------------------------------5-5-5-8--|
G|--7*^(9)r7p5--7^(9)-7^(9)vv--7^(9)r7p5-------7--|
D|------------------------------------------------|
A|------------------------------------------------|
E|------------------------------------------------|


E|---------------------------------------5-5-5----|
B|---------------------------------------5-5-5-8--|
G|--7^(9)r7p5--7^(9)-7^(9)vv--7^(9)r7p5-------7---|
D|------------------------------------------------|
A|------------------------------------------------|
E|------------------------------------------------|

E|--------------10-10-------10-10--------10-10------10-10--|
B|--10----------10-10-------10-10--------10-10------10-10--|
G|----7-5--7^(9)-------7^(9)--------7^(9)------7^(9)-------|
D|---------------------------------------------------------|
A|---------------------------------------------------------|
E|---------------------------------------------------------|

E|---------10-10-------10-10----------------------------|
B|---------10-10-------10-10----------------------------|
G|--7^(9)--------7^(9)--------7^(9)r7p5-----------------|
D|--------------------------------------7vv-------------|
A|------------------------------------------------------|
E|------------------------------------------------------|


Outro:

E|-------------------------|
B|-------------------------|
G|--7^(9)--(9)r7--9-7-9vv--|
D|-------------------------|
A|-------------------------|
E|-------------------------|


*pinched harmonic
Related for Mr Ginger tab