Song name
# A B C D E F G H I J K L M N O P Q R S T U V W X Y Z

The Stupids - The Radio Still Under Control tab

esta cancion esta exacta
nadamas le falta el solo y estoy trabajando en ello.
empecemos:

intro:

GUITARRA 1:

e--12-10-9-12-10-9--10-9--10-9------|
B-----------------10----10----10----|
G-----------------------------------|
D-----------------------------------|   X2
A-----------------------------------|
E-----------------------------------|

GUITARRA 2:

* CHEKEN LA ROLA PARA Q VEAN EL RITMO Q TIENE

e--9--9--9--9--9--9--9--9--9-7-7-7-7-7-7-7-7-7-|
B-10-10-10-10-10-10-10-10-10-8-8-8-8-8-8-8-8-8-|
G-11-11-11-11-11-11-11-11-11-9-9-9-9-9-9-9-9-9-|
D-11-11-11-11-11-11-11-11-11-9-9-9-9-9-9-9-9-9-|
A--9--9--9--9--9--9--9--9--9-7-7-7-7-7-7-7-7-7-|
E--9--9--9--9--9--9--9--9--9-7-7-7-7-7-7-7-7-7-|

* LA GUITARRA 2 SIGUE TOCANDO EL MISMO RITMO

GUITARRA 1:

e--12-10-9-12-10-9--10-9--10-9------|
B-----------------10----10----10----|
G-----------------------------------|
D-----------------------------------|   X2
A-----------------------------------|
E-----------------------------------|

GUITARRA 2:

e--9--9--9--9--9--9--9--9--9-7-7-7-7-7-7-7-7-7-|
B-10-10-10-10-10-10-10-10-10-8-8-8-8-8-8-8-8-8-|
G-11-11-11-11-11-11-11-11-11-9-9-9-9-9-9-9-9-9-|
D-11-11-11-11-11-11-11-11-11-9-9-9-9-9-9-9-9-9-|
A--9--9--9--9--9--9--9--9--9-7-7-7-7-7-7-7-7-7-|
E--9--9--9--9--9--9--9--9--9-7-7-7-7-7-7-7-7-7-|


EN EL SEGUNDO NUM 00:52 EMPIEZA UN POCO RAPIDO
Y AKI ENTRAN LAS DOS GUITARRAS

e --9--9--9--9--9--9--9--9--9--9--7-7-7-7-7-7-7-7-7-7-|
B --9--9--9--9--9--9--9--9--9--9--8-8-8-8-8-8-8-8-8-8-|
G -10-10-10-10-10-10-10-10-10-10--9-9-9-9-9-9-9-9-9-9-|
D -11-11-11-11-11-11-11-11-11-11--9-9-9-9-9-9-9-9-9-9-|  X2
A -11-11-11-11-11-11-11-11-11-11--7-7-7-7-7-7-7-7-7-7-|
E --9--9--9--9--9--9--9--9--9--9--7-7-7-7-7-7-7-7-7-7-|

*ATENCION NO ES LO MISMO Q LO Q HACE LA GUITARRA 2
ANTERIORMENTE SOLO CAMBIA UNA COSA CHECENLA BIEN


GUITARRA 1:

e--12-10-9-12-10-9--10-9--10-9------|
B-----------------10----10----10----|
G-----------------------------------|
D-----------------------------------|   X2
A-----------------------------------|
E-----------------------------------|

GUITARRA 2:

e--9--9--9--9--9--9--9--9--9-7-7-7-7-7-7-7-7-7-|
B-10-10-10-10-10-10-10-10-10-8-8-8-8-8-8-8-8-8-|
G-11-11-11-11-11-11-11-11-11-9-9-9-9-9-9-9-9-9-|
D-11-11-11-11-11-11-11-11-11-9-9-9-9-9-9-9-9-9-|
A--9--9--9--9--9--9--9--9--9-7-7-7-7-7-7-7-7-7-|
E--9--9--9--9--9--9--9--9--9-7-7-7-7-7-7-7-7-7-|

* LA GUITARRA 2 SIGUE TOCANDO EL MISMO RITMO

e --9--9--9--9--9--9--9--9--9--9--7-7-7-7-7-7-7-7-7-7-|
B --9--9--9--9--9--9--9--9--9--9--8-8-8-8-8-8-8-8-8-8-|
G -10-10-10-10-10-10-10-10-10-10--9-9-9-9-9-9-9-9-9-9-|
D -11-11-11-11-11-11-11-11-11-11--9-9-9-9-9-9-9-9-9-9-|  X2
A -11-11-11-11-11-11-11-11-11-11--7-7-7-7-7-7-7-7-7-7-|
E --9--9--9--9--9--9--9--9--9--9--7-7-7-7-7-7-7-7-7-7-|


e--12-10-9-12-10-9--10-9--10-9------|
B-----------------10----10----10----|
G-----------------------------------|
D-----------------------------------|   X2
A-----------------------------------|
E-----------------------------------|


*(AKI ES DONDE LLEVA EL SOLO)

DESPUES UN SOLO TOKE POR CADA ACORDE

e--9---7----9---7-|
B-10---8---10---8-|
G-11---9---11---9-|
D-11---9---11---9-|
A--9---7----9---7-|
E--9---7----9---7-|

e --9--9--9--9--9--9--9--9--9--9--7-7-7-7-7-7-7-7-7-7-|
B --9--9--9--9--9--9--9--9--9--9--8-8-8-8-8-8-8-8-8-8-|
G -10-10-10-10-10-10-10-10-10-10--9-9-9-9-9-9-9-9-9-9-|
D -11-11-11-11-11-11-11-11-11-11--9-9-9-9-9-9-9-9-9-9-|  X2
A -11-11-11-11-11-11-11-11-11-11--7-7-7-7-7-7-7-7-7-7-|
E --9--9--9--9--9--9--9--9--9--9--7-7-7-7-7-7-7-7-7-7-|


GUITARRA 1:

e--12-10-9-12-10-9--10-9--10-9------|
B-----------------10----10----10----|
G-----------------------------------|
D-----------------------------------|   X2
A-----------------------------------|
E-----------------------------------|

GUITARRA 2:


e--9--9--9--9--9--9--9--9--9-7-7-7-7-7-7-7-7-7-|
B-10-10-10-10-10-10-10-10-10-8-8-8-8-8-8-8-8-8-|
G-11-11-11-11-11-11-11-11-11-9-9-9-9-9-9-9-9-9-|
D-11-11-11-11-11-11-11-11-11-9-9-9-9-9-9-9-9-9-|
A--9--9--9--9--9--9--9--9--9-7-7-7-7-7-7-7-7-7-|
E--9--9--9--9--9--9--9--9--9-7-7-7-7-7-7-7-7-7-|


BUENO ESTA ES MI TAB SI AHI ALGUN ERROR
ESCRIBANME A elmou_tni@hotmail.com
Y PUES YA

SALUDOS A TODOS MI AMIGOS LA WERA Q LA AMO,ANGEL,THE ROOM
VENEZIA,MATEOS Y A LO Q VISITAN ESTA TAB GRACIAS
Tap to rate this tab
# A B C D E F G H I J K L M N O P Q R S T U V W X Y Z