Song name
# A B C D E F G H I J K L M N O P Q R S T U V W X Y Z

The Stupids - Why Swear My Love tab

q onda bueno pues la rola de why swear my love?
hice lo posible por sacarla
me faltan unos detallitos pero lo q llevo si suena

se las dejo para q la cheken

INTRO

      F#m  Badd9  E  G#m  Gm
e|---2------2----x---4----3--|
B|---2------2----x---4----3--|
G|---2------4----1---4----3--|    x2
D|---4------4----2---6----5--|
A|---4------2----2---6----5--|
E|---2------2----x---4----3--|

e|-12-9-7-12-9-7-----------|
B|---------------12-9-12---|
G|-------------------------|
D|-------------------------|
A|-------------------------|
E|-------------------------|


e|-12-9-7-12-9-7---------------------------------|
B|---------------12-9-10/12-9-10/12-12---12-9----|
G|-----------------------------------------------|
D|-----------------------------------------------|
A|-----------------------------------------------|
E|-----------------------------------------------|


ESTO VA CON LA VOZ

e|--12-12-12-12-9-9-9-9-12-9---------------------------------------------|
B|----------------------------12-12-12-12-7-7-7-7-9-7--------------------|           x3
G|-----------------------------------------------------------------------|
D|-----------------------------------------------------------------------|
A|-----------------------------------------------------------------------|
E|-----------------------------------------------------------------------|

e|--12-12-12-12-9-9-9-9-12-9--12/14-14-14-14-14-16-16-16-16------|
B|---------------------------------------------------------------|
G|---------------------------------------------------------------|
D|---------------------------------------------------------------|
A|---------------------------------------------------------------|
E|---------------------------------------------------------------|

e|------------------------------|
B|-9/12-12-12-12-7-9-7----------|        x3
G|------------------------------|
D|------------------------------|
A|------------------------------|
E|------------------------------|

e|-----------------------------------|
B|-9/12-12-12-12-7-9-7-5-9-7-9-7-9---|
G|-----------------------------------|
D|-----------------------------------|
A|-----------------------------------|
E|-----------------------------------|


ojala y les guste
se repiten varias partes en la cancion pero pues asi la escucho
ya sabes cualkier duda o reclamo elmou_tni@hotmail.com
neta dime lo q sea no importa q esta mal o aka
nneee tu dime
sirve q la corrijo
como vez we
me falta el solo
Tap to rate this tab
# A B C D E F G H I J K L M N O P Q R S T U V W X Y Z