Song name
# A B C D E F G H I J K L M N O P Q R S T U V W X Y Z

The Styles - Glitter Hits tab

                    ----------------------------------
                       THE STYLES: GLITTER HITS
                    ----------------------------------


It is because these is no guitar in the verses, but in the pre chorus and the chorus 
is. And here it is...
PRE CHORUS:
e[x----------------------------------------------------------------|
B[x----------------------------------------------------------------|
G[x----------------------------------------------------------------| X2
D[---6-6-6--4-4---11-11-11--9-9------------------------------------|
A[---6-6-6--4-4---11-11-11--9-9------------------------------------|
E[---4-4-4--2-2---9--9--9---7-7------------------------------------|

CHORUS:
e[x----------------------------------------------------------------|
B[x----------------------------------------------------------------|
G[x----------------------------------------------------------------| X4
D[---6-6-6-6--4-4-4-4--11-11-11-11--9-9-9-9------------------------|
A[---6-6-6-6--4-4-4-4--11-11-11-11--9-9-9-9------------------------|
E[---4-4-4-4--2-2-2-2--9--9--9--9---7-7-7-7------------------------|

END CHORUS:
e[x----------------------------------------------------------------|
B[x----------------------------------------------------------------|
G[x----------------------------------------------------------------|
D[----4-4-4-4-4-4-4-4-11-11-11-11-11-11-11-11----------------------|X4
A[----4-4-4-4-4-4-4-4-11-11-11-11-11-11-11-11----------------------|
E[----2-2-2-2-2-2-2-2-9--9--9--9--9--9--9--9-----------------------|

Repeat the Chorus after a Verse.
                  -END
Tap to rate this tab
# A B C D E F G H I J K L M N O P Q R S T U V W X Y Z