Song name
# A B C D E F G H I J K L M N O P Q R S T U V W X Y Z

The Submarines - Vote tab

not a hard song really

e:  ------------------|
B:  ------------------|
G:  -----2----0-------|
D:  ---------2--------|
A:  --3---------------|
E:  1------1----------| x2

verse

e:  ---------------------------------------------------------------------|
B:  ---------------------------------------------------------------------|
G:  10--10---9---9--10--10---9-10/12--10--10---9---9--10--10------10--10-|
D:  --10--10--10--10--10--10------------10--10--10--10--10--10--10--10---|
A:  ---------------------------------------------------------------------|
E:  ---------------------------------------------------------------------|

Chorus

F, C, D, C

Bridge

e:  ------------------------------------|
B:  10--10---8---------10--10--11--11---|
G:  --10--10--10-9-10----10--10--10--10-|
D:  ------------------------------------|
A:  ------------------------------------|
E:  ------------------------------------|

e:  -------------------------------------------|
B:  10--10---8---------10--10------10------8---|
G:  --10--10--10-9-10----10--10--10--10--9---9-|
D:  -------------------------------------------|
A:  -------------------------------------------|
E:  -------------------------------------------|
Tap to rate this tab
 
# A B C D E F G H I J K L M N O P Q R S T U V W X Y Z