The Submarines - The Brightest Hour tab

This is my very first tab. Everything is by ear so if there are any mistakes feel 
free to inform me. :)

Intro (and throughout the song) : 

E|------------------------------------------------------------------------|
B|------------------------------------------------------------------------|
G|-11---9------9----9--------9----------------9---------------9-----------|
D|----0---0-11---11-----11-------11---9---9-------9---7---7-------7---0---|
A|--------------------0----0---0--- 0---7---7---7---7---9---9---9---9-----|
E|------------------------------------------------------------------------|
 

D
Wandering through starry skies
     A               E
And when tomorrow's day arrives
     D           (F#m)
I'll be a moment closer to the
 A            E
Brightest Hour here with you


E|-7-5-----|-7-5------|-7-5------|-9-7-------|
B|-----7-5-|-----7-5--|-----5-7--|-----10-9--|
G|---------|----------|----------|-----------|
D|---------|----------|----------|-----------|
A|---------|----------|----------|-----------|
E|---------|----------|----------|-----------|

E|-7-5-----|-7-5------|-7-5------|-9-9-7-7-5-|
B|-----5-7-|-----7-5--|-----5-7--|-----------|
G|---------|----------|----------|-----------|
D|---------|----------|----------|-----------|
A|---------|----------|----------|-----------|
E|---------|----------|----------|-----------|

D                A
One step closer, getting brighter

E|-----7-|------|--5----|
B|-5-7---|------|-5-7---|
G|-------|------|-------|
D|-------|------|-------|
A|-------|------|-------|
E|-------|------|-------|

E                F#m
One step closer, getting brighter....

E|-9-9-7-7-|------|--------|
B|---------|------|-7-5----|
G|---------|------|-----6--|
D|---------|------|--------|
A|---------|------|--------|
E|---------|------|--------|

E|-7-5-----|-7-5------|-9-7------|--------|
B|-----5-7-|-----5-7--|-----5-7--|-7-10---|
G|---------|----------|----------|--------|
D|---------|----------|----------|--------|
A|---------|----------|----------|--------|
E|---------|----------|----------|--------|

D             F#m
Wandering through starry skies
      A              E
And when tomorrow's day arrives
     D            F#m
I'll be a moment closer to the
 A            E
Brightest Hour, here with you


E|-7-5-----|-7-5------|-9-7------|--------|
B|-----5-7-|-----5-7--|-----5-7--|-7-10---|
G|---------|----------|----------|--------|
D|---------|----------|----------|--------|
A|---------|----------|----------|--------|
E|---------|----------|----------|--------|

Outro :

E|------------------------------------------------------|
B|------------------------------------------------------|
G|-11-9---------9---------------------------------------|
D|------11-9-11---11-9-7------(softly)7-7-7-7-9-9-9-9-11|
A|------------------------------------------------------|
E|------------------------------------------------------|
Tap to rate this tab
 
# A B C D E F G H I J K L M N O P Q R S T U V W X Y Z