Song name
# A B C D E F G H I J K L M N O P Q R S T U V W X Y Z

The Submarines - Hope chords

Highlighted       Show chord diagrams
Hope-The Submarines

I recommend you finger-pick it in this manner
      F            C          Dm           C
e|-------1---|-------1---|-------1---|-------1---|
B|-------1---|-------1---|-------1---|-------1---|
G|----2----2-|----2----2-|----2----2-|----2----2-|
D|-----------|-----------|--0--------|-----------|
A|-----------|--3--------|-----------|--3--------|
E|--1--------|-----------|-----------|-----------|

I would also recommend this finger-picking when the drums stop towards the end of the tune.
         F                 C               Dm                C
e|--------1-------|--------1-------|--------1-------|--------1-------|
B|----1-----1----1|----1-----1----1|----1-----1----1|----1-----1----1|
G|--2---2------2--|--2---2------2--|--2---2------2--|--2---2------2--|
D|----------------|----------------|0---------------|----------------|
A|----------------|3---------------|----------------|3---------------|
E|1---------------|----------------|----------------|----------------|


                   -------------------------------------------

         F     C       Dm
Ain't no sunshine

      C        F      C     Dm   C
Gonna take away this rain

         F     C       Dm
Ain't no sunshine

      C       F      C     Dm   C
Gonna take away this rain


   F          C           Dm
I should have known you were

      C      F    C    Dm    C
Gonna drift away


         F        C       Dm
Ain't no sunshine

      C      F       C       Dm    C
Ever gonna take this rain away


F                   C 
All I have's this hard drive

         Dm                 C
With no space left for a day

F             C
See how it becomes something

     Dm              C
That we just put away

  F           C                      Dm      C
With this restlessness you can't sustain

      F                 C          
And I guess you haven't seen enough

  Dm                 C
To make you wanna stay


         F     C       Dm
Ain't no sunshine

      C        F      C     Dm   C
Gonna take away this rain

         F     C       Dm
Ain't no sunshine

      C       F      C     Dm   C
Gonna take away this rain


       F         C      Dm
You're going away now

             C        F   C  Dm  C
But I'm not giving up

       F         C      Dm 
You're seventeen miles away

             C        F   C  Dm  C
But I'm not giving up


         F     C       Dm
Ain't no sunshine

      C        F      C     Dm   C
Gonna take away this rain

         F     C       Dm
Ain't no sunshine

      C       F      C     Dm   C
Gonna take away this rain


**Thanks for choosing FluroecentTabs!!!
Tap to rate this tab
 
# A B C D E F G H I J K L M N O P Q R S T U V W X Y Z