Song name
# A B C D E F G H I J K L M N O P Q R S T U V W X Y Z

The Submarines - Darkest Things tab

-------------------------------------------------------------------------------
			     Darkest Things – The Submarines
-------------------------------------------------------------------------------

The Submarines Webpage: http://www.thesubmarines.com/

Tabbed by: Eric Huynh
Email: erichuynh@shaw.ca

Tuning: EADGBE (capo 4)

Relative to capo

e|-----------0-----------------3--------------0-------------------------------|
B|--------------1----------------------0h1------1-------1---------------------|
G|------------------------2--------0-------------------------0----------------|
D|------2------------3--------------------------------------------------------|
A|--3-------------------------------------------------------------------------|
E|----------------------------------------------------------------------------|

e|-----------0-----------------0------------------0--------------0--------------|
B|-------------1---------------1---1--------------1---1----------1----1---------|
G|------2----------------------0------------2-----2--------------0--------------|
D|--3-------------------2---------------3--------------------2------------------|
A|------------------3--------------------------------------3--------------------|
E|------------------------------------------------------------------------------|

e|----------- 3----3-------------------------------------------------------------|
B|------------3--------3---------------------------------------------------------|
G|------------0------------0-----------------------------------------------------|
D|-------------------------------------------------------------------------------|
A|------2------------------------------------------------------------------------|
E|---3---------------------------------------------------------------------------|

| h  hammer-on


Time! 15 minutes! Wooh! Ok so that first open g-string you play probably shouldn’t be 
lazy to hear it. Lemme know if you find any other mistakes. Thanks!

The rest of the song will come when I’m not lazy… =]
===============================================================================
Tap to rate this tab
# A B C D E F G H I J K L M N O P Q R S T U V W X Y Z