Song name
# A B C D E F G H I J K L M N O P Q R S T U V W X Y Z

The Subsonics - Reflections Of A Gutter tab

-------------------------------------------------------------------------------
			     REFLECTIONS OF A GUTTER - The Subsonics
-------------------------------------------------------------------------------
Tabbed by: Andrey Nazarov
Email: andreynazarov@inbox.ru

Tuning: Half-Step Down

        Chords

        B   Ebm  E(v1)   F# E(v2)
e|------2----6---0-------2----x-----------------------------------------------------|
B|------4----7---0------2----9------------------------------------------------------|
G|------4----8---1------3----9------------------------------------------------------|
D|------4----8---2------4----9------------------------------------------------------|
A|------2----6---2------4----7------------------------------------------------------|
E|------x----x---0-------2----x-----------------------------------------------------|

Intro B Emb E(v2) F#

verse 1.

  B                Ebm
Reflections of a gutter
  E(v2)         F#
And close behind
  E(v1)              F#
That leaves our memory

verse 2.

  B                Ebm
Reflections of a gutter
  E(v2)       F#
We left behind
  E(v1)         F#                                 B      F#
Reflecting back and me, but not forever

solo

repeat verse 1 verse 2

e|---------11-12------------------------------------------------------------------------|
B|12-14---------14-12-11-11-11-11-12-12-12-12---------------------------------14-14-14--|
G|--------------------------------------------------------13-13-13-13-15-15-15-15-------|
D|--------------------------------------------------------------------------------------|
A|--------------------------------------------------------------------------------------|
E|--------------------------------------------------------------------------------------|

e|-------------------------------------------------11-11-11-11 2-2-2-2--|
B|-14-12-12-12-12-----11----11-----11-12-12-12-12-12-2-2-2-2------------|
G|---------------------13----13-----11--------13-13-13-13-3-3-3-3-------|
D|----------------------------------------------------------------------|
A|----------------------------------------------------------------------|
E|----------------------------------------------------------------------|


| x  Mute note
===============================================================================

www.subsonics.net
Tap to rate this tab
 
# A B C D E F G H I J K L M N O P Q R S T U V W X Y Z