Song name
# A B C D E F G H I J K L M N O P Q R S T U V W X Y Z

The Suburbs - Chemistry Set tab

-------------------------------------------------------------------------------
			     Chemistry Set - The Suburbs
-------------------------------------------------------------------------------
Tabbed by:unknown
Email: none

Tuning:Standard

Intro/Verse

Fast down strokes
e|----------------------------|
B|----------------------------|
G|-5-5-5-6-6-6-7-7-7-9-9-9----|
D|-5-5-5-6-6-6-7-7-7-9-9-9----|
A|-3-3-3-4-4-4-5-5-5-7-7-7----|
E|----------------------------|

Chorus

Quick up down strokes
e|----------------------------------------------------------|
B|----------------------------------------------------------|
G|----------------------------------------------------------|
D|----------------------------------------------------------|
A|-9--9--9--9--11--9--9--9--9---9--9--9--9--11--------------|
E|-7--7--7--7---7--7--7--7--7---7--7--7--7--7---------------|

band web site
http://www.twintone.com/suburbs.html

| /  slide up
| \  slide down
| h  hammer-on
| p  pull-off
| ~  vibrato
| +  harmonic
| x  Mute note
===============================================================================
Tap to rate this tab
 
# A B C D E F G H I J K L M N O P Q R S T U V W X Y Z