Song name
# A B C D E F G H I J K L M N O P Q R S T U V W X Y Z

The Subways - Lostboy tab

Help us improve GuitareTab! Take a short survey!
Intro
Eb|--333-------777-----|
Bb|--333---------------|
Gb|--000---------------|
Db|00000---------------|
Ab|22222---------------| x4
Eb|33333-----77777-----|

VERSE
Eb|--333-------777-----|
Bb|--333---------------|
Gb|--000---------------|
Db|00000---------------|
Ab|22222---------------| x8
Eb|33333-----77777-----|

Bridge
(and we fell asleep...)

    C B Am          D
Eb|-0-0-000000000-000000000--|
Bb|-3-3-111111111-333333333--|
Gb|-0-0-222222222-222222222--|
Db|-2-0-222222222------------|
Ab|-3-2-000000000------------| x2
Eb|--------------------------|

CHORUS
Eb|----1010----1010----88----|
Bb|----1010----1010----88----|
Gb|--------------------------|
Db|--------------------------|
Ab|--------------------------|
Eb|1010------99------77------|

             
Eb|-0-0-0000--0-0--0000------|
Bb|-3-3-1111--3-3--1111------|
Gb|-0-0-2222--0-0--2222------|
Db|-2-0-2222--2-0--2222------|
Ab|-3-2-0000--3-2--0000------|
Eb|--------------------------|

(REPEAT CHORUS - THEN BRIDGE - THEN INTRO ETC...)
Related for Lostboy tab