Guitaretab - guitar tabs
Song name
# A B C D E F G H I J K L M N O P Q R S T U V W X Y Z

The Subways - This Is The Club tab

Band: The Subways
Album: All Or Nothing
Tabbed By: ConkyJ20

Tuning: Half a Step Down (E Flat)


This Should Be Right. Enjoy! :)


Intro and Verse


Eb----------------------10--------------|
Bb-----------------10------10-----------|
Gb-------------9------9-----------------|
Db---------------9----------------------|
Ab--------777---------------------------|
Eb--------------------------------------|

Verse End

Eb--------------------------------------|
Bb-----------------10-------------------|
Gb-------------9------------------------|
Db---------------9----------------------|
Ab--------777---------------------------|
Eb--------------------------------------|


Chorus

Eb--------------------------------------|
Bb--------------------------------------|
Gb--12-----14^--------------------------|
Db-----X8-------x8----------------------|
Ab--10-----12^--------------------------|
Eb--------------------------------------|


Bridge

Eb--------------------------------------|
Bb--------------------------------------|
Gb----------12--11-9--77-99-------------|
Db----------10--9--7--55-77-------------|
Ab---9--12------------------------------|
Eb---7--10------------------------------|


Bridge End

Eb--------------------|
Bb--------------------|
Gb--------------------|
Db---5-----2----------|
Ab---3-----0----------|
Eb--------------------|

Solo-Plectrum Slides


Verse -- Bass only

Verse End
[ Tab from: http://www.guitaretab.com/t/the-subways/114413.html ]
Eb-----------|
Bb----10-----| let ring
Gb-----------|
Db-----------|
Ab-----------|
Eb-----------|

Chorus

Eb--------------------------------------|
Bb--------------------------------------|
Gb--12-----14^--------------------------|
Db-----X8-------x8----------------------|
Ab--10-----12^--------------------------|
Eb--------------------------------------|

Outro

Eb----------------------10--------------|
Bb-----------------10------10-----------|
Gb-------------9------9-----------------|
Db---------------9----------------------|
Ab--------777---------------------------|
Eb--------------------------------------|

Eb----------------------10--------------|
Bb-----------------10------10-----------|
Gb-------------9------9-----------------|
Db---------------9----------------------|
Ab--------777---------------------------|
Eb--------------------------------------|

Eb----------------------10--------------|
Bb-----------------10------10-----------|
Gb-------------9------9-----------------|
Db---------------9----------------------|
Ab--------777---------------------------|
Eb--------------------------------------|

Eb--------------------------------------|
Bb-----------------10-------------------|
Gb-------------9------------------------|
Db---------------9----------9-----------|
Ab--------777---------------7-----------|
Eb--------------------------0-----------|




^ = Bend

Intro- x8
Verse- x8
Chorus- x4
Verse- x8
Chorus- x4
Bridge- x3
Solo
Verse
Chorus- x8
Outro
Related for This Is The Club tab