Song name
# A B C D E F G H I J K L M N O P Q R S T U V W X Y Z

The Subways - Streetfighter tab

Tuning: Standard

  Intro                                         (end on)
e|---------------------------------------------------------------------------|
B|---------------------------------------------------------------------------|
G|-3-3-3-1-3----------6-6-6-6--10-10-10-10-------3---------------------------|
D|-3-3-3-1-3-6--(x3)--6-6-6-6--10-10-10-10-------3---------------------------|
A|-1-1-1-1-1-6--------4-4-4-4--8--8--8--8--------1---------------------------|
E|-----------4---------------------------------------------------------------|

  Verse                      (repeat as neccessary)
e|---------------------------------------------------------------------------|
B|---------------------------------------------------------------------------|
G|-6-6-6-6--10-10-10-10-----3------------------------------------------------|
D|-6-6-6-6--10-10-10-10-----3------------------------------------------------|
A|-4-4-4-4--8--8--8--8------1------------------------------------------------|
E|---------------------------------------------------------------------------|


e|---------------------------------------------------------------------------|
B|---------------------------------------------------------------------------|
G|-3-3-3-1-3----------6-6-6-6--10-10-10-10-------3---------------------------|
D|-3-3-3-1-3-6--(x3)--6-6-6-6--10-10-10-10-------3---------------------------|
A|-1-1-1-1-1-6--------4-4-4-4--8--8--8--8--------1---------------------------|
E|-----------4---------------------------------------------------------------|

  Pre-Chorus
e|---------------------------------------------------------------------------|
B|---------------------------------------------------------------------------|
G|-5-5-5-5-5--6-6-6--11-11-11------------------------------------------------|
D|-5-5-5-5-5--6-6-6--11-11-11------------------------------------------------|
A|-3-3-3-3-3--4-4-4--9--9--9-------------------------------------------------|
E|---------------------------------------------------------------------------|

  Chorus
e|---------------------------------------------------------------------------|
B|---------------------------------------------------------------------------|
G|-3-3-3--6--11--8-8-8--6-6--------------------------------------------------|
D|-3-3-3--6--11--8-8-8--6-6--------------------------------------------------|
A|-1-1-1--4--9---6-6-6--4-4--------------------------------------------------|
E|---------------------------------------------------------------------------|

The rest of the song continues in this format. There is a part in the song which is the 
riff played on an acoustic guitar, but palm-muting at this point sounds good.
Tap to rate this tab
# A B C D E F G H I J K L M N O P Q R S T U V W X Y Z