Guitaretab - guitar tabs
Song name
# A B C D E F G H I J K L M N O P Q R S T U V W X Y Z

The Subways - Kalifornia tab

The Subways: Kalifornia

I tried my best i think its mostly right, if any corrctions feel free to steal
the tab and just add them in

Thanks, Dan


Intro/verse

e|----------------------------------------------------|
B|----------------------------------------------------|
G|--5-5-5-7--8-8-8-8------------4-4-4-4---------------|
D|--5-5-5-7--8-8-8-8---6-6-6-6--4-4-4-4---------------|
A|--3-3-3-5--6-6-6-6---6-6-6-6--2-2-2-2---------------|
E|---------------------4-4-4-4------------------------|

keep doing that as the intro and all the way through the verses

Chourus

e|----------------------------------------------------|
B|--8---8-----4---4-----------------------------------|
G|--8---8-----5---5-----4-4-4-4-4-4-4-4-4-4-4-4-4-----|
D|--8---8-----5---5-----4-4-4-4-4-4-4-4-4-4-4-4-4-----|
A|--6---6-----3---3-----2-2-2-2-2-2-2-2-2-2-2-2-2-----|
E|----------------------------------------------------|

Bridge

e|----------------------------------------------------|
B|----------------------------------------------------|
G|-----8-8-8-8----------------------------------------|
D|--10-8-8-8-8---3--6-6--3--6-6-----------------------|
A|--10-6-6-6-6---3--6-6--3--6-6-------x2--------------|
E|--8------------1--4-4--1--4-4-----------------------|

e|----------------------------------------------------|
B|----------------------------------------------------|
G|--8-8-8-8-8-----------------------------------------|
D|--8-8-8-8-8--3-3-3-3-3-3-3-3------------------------|
A|--6-6-6-6-6--3-3-3-3-3-3-3-3-------x2---------------|
E|-------------1-1-1-1-1-1-1-1------------------------|

Final Chourus's/Outro Chourus
[ Tab from: http://www.guitaretab.com/t/the-subways/169431.html ]
e|----------------------------------------------------|
B|--8-/-/-/-/-/-/-/-/-/-/-/--4-/-/-/-/-/-/-/-/-/-/-/--|
G|--8-/-/-/-/-/-/-/-/-/-/-/--5-/-/-/-/-/-/-/-/-/-/-/--|
D|--8-/-/-/-/-/-/-/-/-/-/-/--5-/-/-/-/-/-/-/-/-/-/-/--|
A|--6-/-/-/-/-/-/-/-/-/-/-/--3-/-/-/-/-/-/-/-/-/-/-/--|
E|----------------------------------------------------|
gentle struming

e|----------------------------------------------------|
B|--8-/-/-/-/-/-/-/-/-/-/-/--4-/-/-/-/-/--4-----------|
G|--8-/-/-/-/-/-/-/-/-/-/-/--5-/-/-/-/-/--5-----------|
D|--8-/-/-/-/-/-/-/-/-/-/-/--5-/-/-/-/-/--5-----------|
A|--6-/-/-/-/-/-/-/-/-/-/-/--3-/-/-/-/-/--3-----------|
E|----------------------------------------------------|
and again

e|----------------------------------------------------|
B|--8---8-----4---4-----------------------------------|
G|--8---8-----5---5-----------------------------------|
D|--8---8-----5---5------x2---------------------------|
A|--6---6-----3---3-----------------------------------|
E|----------------------------------------------------|
back to normal

e|----------------------------------------------------|
B|--8-/-/-/-/-/-/-/-/-/-/-/--4-/-/-/-/-/-/-/-/-/-/-/--|
G|--8-/-/-/-/-/-/-/-/-/-/-/--5-/-/-/-/-/-/-/-/-/-/-/--|
D|--8-/-/-/-/-/-/-/-/-/-/-/--5-/-/-/-/-/-/-/-/-/-/-/--|
A|--6-/-/-/-/-/-/-/-/-/-/-/--3-/-/-/-/-/-/-/-/-/-/-/--|
E|----------------------------------------------------|
slight distortion

e|----------------------------------------------------|
B|----------------------------------------------------|
G|--4-4-4-4-4-4-4-4-4-4-4-4-4-------------------------|
D|--4-4-4-4-4-4-4-4-4-4-4-4-4-------------------------|
A|--2-2-2-2-2-2-2-2-2-2-2-2-2-------------------------|
E|----------------------------------------------------|
slight distortion

Outro

e|----------------------------------------------------|
B|----------------------------------------------------|
G|--5-5-5-7--8-8-8-8------------4-4-4-4----4----------|
D|--5-5-5-7--8-8-8-8---6-6-6-6--4-4-4-4-x4-4----------|
A|--3-3-3-5--6-6-6-6---6-6-6-6--2-2-2-2----2----------|
E|---------------------4-4-4-4------------------------|
Related for Kalifornia tab