Guitaretab - guitar tabs
Song name
# A B C D E F G H I J K L M N O P Q R S T U V W X Y Z

The Subways - Turnaround tab

The Subways: Turnaround

My fave sing from the new album i think iv tabbed it right if not feel free to
steal and make corrections

Thanks, Dan

Intro

e|-----------------------------------------------------------|
B|-----------------------------------------------------------|
G|-----------------------------------------------------------|
D|-----------------------------------------------------------|
A|--6-6-6--6-6-6-6--6-6-6--6-6-6-6--6-6-6--6-6-6-6-----------|
E|--4-4-2--4-4-4-2--4-4-2--4-4-4-2--4-4-2--4-4-4-2-----------|

Do untill the verse when the singing comes in

As the verse ends

e|-----------------------------------------------------------|
B|-----------------------------------------------------------|
G|--6-6-6--8-8-8---------------------------------------------|
D|--6-6-6--8-8-8---------------------------------------------|
A|--4-4-4--6-6-6---------------------------------------------|
E|-----------------------------------------------------------|

Pre Chourus

You gotta liv a dangerous life.......

e|-----------------------------------------------------------|
B|-----------------------------------------------------------|
G|---------------------------6-6--8-8------------------------|
D|--6-6-6-6-6-6-6-6-6-6-6-6--6-6--8-8----------x2------------|
A|--6-6-6-6-6-6-6-6-6-6-6-6--4-4--6-6------------------------|
E|--4-4-4-4-4-4-4-4-4-4-4-4----------------------------------|

Chourus

e|-----------------------------------------------------------|
B|-----------------------------------------------------------|
G|--4-4--6-6--8-8--11-11-------------------------------------|
D|--4-4--6-6--8-8--11-11--6-6-6-6-6-6-6-6--------------------|
A|--2-2--4-4--6-6--9--9---6-6-6-6-6-6-6-6---------x2---------|
E|------------------------4-4-4-4-4-4-4-4--------------------|

e|-----------------------------------------------------------|
B|-----------------------------------------------------------|
G|--4-4--6-6--8-8--11-11-------------------------------------|
D|--4-4--6-6--8-8--11-11--6-6-4-4-3-3-2-2--------------------|
A|--2-2--4-4--6-6--9--9---6-6-4-4-3-3-2-2--------------------|
E|------------------------4-4-2-2-1-1-0-0--------------------|

e|-----------------------------------------------------------|
B|-----------------------------------------------------------|
G|--4-4--6-6--8-8--11-11-------------------------------------|
D|--4-4--6-6--8-8--11-11--6-6-6-6-6-6-6-6--------------------|
A|--2-2--4-4--6-6--9--9---6-6-6-6-6-6-6-6--------------------|
E|------------------------4-4-4-4-4-4-4-4--------------------|

Intro again

e|-----------------------------------------------------------|
B|-----------------------------------------------------------|
G|-----------------------------------------------------------|
D|-----------------------------------------------------------|
A|--6-6-6--6-6-6-6--6-6-6--6-6-6-6--6-6-6--6-6-6-6-----------|
E|--4-4-2--4-4-4-2--4-4-2--4-4-4-2--4-4-2--4-4-4-2-----------|

Do untill the verse when the singing comes in

As the verse ends

e|-----------------------------------------------------------|
B|-----------------------------------------------------------|
G|--6-6-6--8-8-8---------------------------------------------|
D|--6-6-6--8-8-8---------------------------------------------|
A|--4-4-4--6-6-6---------------------------------------------|
E|-----------------------------------------------------------|

Pre Chourus

You gotta liv a dangerous life.......

e|-----------------------------------------------------------|
B|-----------------------------------------------------------|
G|---------------------------6-6--8-8------------------------|
D|--6-6-6-6-6-6-6-6-6-6-6-6--6-6--8-8----------x2------------|
A|--6-6-6-6-6-6-6-6-6-6-6-6--4-4--6-6------------------------|
E|--4-4-4-4-4-4-4-4-4-4-4-4----------------------------------|

Chourus
[ Tab from: http://www.guitaretab.com/t/the-subways/169530.html ]
e|-----------------------------------------------------------|
B|-----------------------------------------------------------|
G|--4-4--6-6--8-8--11-11-------------------------------------|
D|--4-4--6-6--8-8--11-11--6-6-6-6-6-6-6-6--------------------|
A|--2-2--4-4--6-6--9--9---6-6-6-6-6-6-6-6---------x2---------|
E|------------------------4-4-4-4-4-4-4-4--------------------|

e|-----------------------------------------------------------|
B|-----------------------------------------------------------|
G|--4-4--6-6--8-8--11-11-------------------------------------|
D|--4-4--6-6--8-8--11-11--6-6-4-4-3-3-2-2--------------------|
A|--2-2--4-4--6-6--9--9---6-6-4-4-3-3-2-2--------------------|
E|------------------------4-4-2-2-1-1-0-0--------------------|

e|-----------------------------------------------------------|
B|-----------------------------------------------------------|
G|--4-4--6-6--8-8--11-11-------------------------------------|
D|--4-4--6-6--8-8--11-11--6-6-6-6-6-6-6-6--------------------|
A|--2-2--4-4--6-6--9--9---6-6-6-6-6-6-6-6--------------------|
E|------------------------4-4-4-4-4-4-4-4--------------------|

Intro again

e|-----------------------------------------------------------|
B|-----------------------------------------------------------|
G|-----------------------------------------------------------|
D|-----------------------------------------------------------|
A|--6-6-6--6-6-6-6--6-6-6--6-6-6-6--6-6-6--6-6-6-6-----------|
E|--4-4-2--4-4-4-2--4-4-2--4-4-4-2--4-4-2--4-4-4-2-----------|

Do untill stops and just bass plays

Bridge

e|-----------------------------------------------------------|
B|-----------------------------------------------------------|
G|-----------------------------------------------------------|
D|-----------------------------------------------------------|
A|-----------------------------------------------------------|
E|--2-4--2-4--2-4--2-4--2-4----------------------------------|

repeat untill becomes heaver which then is

e|-----------------------------------------------------------|
B|-----------------------------------------------------------|
G|-----------------------------------------------------------|
D|-----------------------------------------------------------|
A|--6-6-6--6-6-6-6--6-6-6--6-6-6-6---------------------------|
E|--2-2-4--2-2-2-4--2-2-4--2-2-2-4---------------------------|

repeat untill chourus

Chourus

e|-----------------------------------------------------------|
B|-----------------------------------------------------------|
G|--4-4--6-6--8-8--11-11-------------------------------------|
D|--4-4--6-6--8-8--11-11--6-6-6-6-6-6-6-6--------------------|
A|--2-2--4-4--6-6--9--9---6-6-6-6-6-6-6-6---------x2---------|
E|------------------------4-4-4-4-4-4-4-4--------------------|

e|-----------------------------------------------------------|
B|-----------------------------------------------------------|
G|--4-4--6-6--8-8--11-11-------------------------------------|
D|--4-4--6-6--8-8--11-11--6-6-4-4-3-3-2-2--------------------|
A|--2-2--4-4--6-6--9--9---6-6-4-4-3-3-2-2--------------------|
E|------------------------4-4-2-2-1-1-0-0--------------------|

e|-----------------------------------------------------------|
B|-----------------------------------------------------------|
G|--4-4--6-6--8-8--11-11-------------------------------------|
D|--4-4--6-6--8-8--11-11--6-6-6-6-6-6-6-6--------------------|
A|--2-2--4-4--6-6--9--9---6-6-6-6-6-6-6-6--------------------|
E|------------------------4-4-4-4-4-4-4-4--------------------|

Outro

e|-----------------------------------------------------------|
B|-----------------------------------------------------------|
G|-----------------------------------------------------------|
D|-----------------------------------------------------------|
A|--6-6-6--6-6-6-6--6-6-6--6-6-6-6--6-6-6--6-6-6-6-----------|
E|--4-4-2--4-4-4-2--4-4-2--4-4-4-2--4-4-2--4-4-4-2-----------|

End on

e|------|
B|------|
G|------|
D|--6---|
A|--6---|
E|--4---|

Related for Turnaround tab