Song name
# A B C D E F G H I J K L M N O P Q R S T U V W X Y Z

The Subways - Strawberry Blonde tab

This is Strawberry Blonde by The Subways, I watched Billy Lunn play this song on
and i kinda worked out the chords that way, the URL for this is
if you wanna watch it and learn the strumming from that, or you can type in 'The subways 
the roof' and find it there.
So here it is please rate this tab :D


Intro, play the intro 4 times
(I've put how many times you play the actual strumming pattern and not the chord on its own)
e|------------------------------------------|
B|-------------1---------3--------3---------|
G|--0----------0---------0--------0---------|
D|--2----------0---------0--------4---------|
A|--3-(x3)-----3-(x1)----5-(x2)---5-(x2)----|
E|--3---------------------------------------|

Pre-Chorus
"Your the light and I am the firefly..."
e|------------------|
B|------------------|
G|--2--------2------|
D|--0--------1------|
A|--2-(x2)---2-(x2)-|
E|------------------|

Chorus
"Tell me yeah..."
e|--4-------4-------2-------5------|
B|--4-------5-------0-------0------|
G|--4-------6-------3-------6------|
D|--6-------6-------4-------7------|
A|--6-(x1)--4-(x1)--4-(x1)--7------|(x1)
E|--4------------------------------|

after the chorus
e|--2-------0-|
B|--0-------0-|
G|--3-------3-|
D|--4-------0-|
A|--4-(x1)--4-|(x1)
E|------------|

Verse
"If we find the light and turn into..."
e|------------------------------------------|
B|-------------1---------3--------3---------|
G|--0----------0---------0--------0---------|
D|--2----------0---------0--------4---------|
A|--3-(x3)-----3-(x1)----5-(x2)---5-(x2)----|
E|--3---------------------------------------|

"Find the lion deep inside your heart"
e|------------------|
B|------------------|
G|--2--------2------|
D|--0--------1------|
A|--2-(x2)---2-(x2)-|
E|------------------|

Chorus
"Tell me yeah..."
e|--4-------4-------2-------5------|
B|--4-------5-------0-------0------|
G|--4-------6-------3-------6------|
D|--6-------6-------4-------7------|
A|--6-(x1)--4-(x1)--4-(x1)--7------|(x1)
E|--4------------------------------|

"Stroke, by Stroke..."(the strumming pattern changes here)
e|-----------------|
B|-----------------|
G|--6---8---9---11-|
D|--6---8---9---11-|
A|--4---6---7---9--|
E|-----------------|


Chorus
"Tell me yeah..."
e|--4-------4-------2-------5------|
B|--4-------5-------0-------0------|
G|--4-------6-------3-------6------|
D|--6-------6-------4-------7------|
A|--6-(x1)--4-(x1)--4-(x1)--7------|(x1)
E|--4------------------------------|

after the chorus
e|--2-------0-|
B|--0-------0-|
G|--3-------3-|
D|--4-------0-|
A|--4-(x1)--4-|(x1)
E|------------|

Outro
"Your the wind and i am the weather vane..."
e|------------------------------------------|
B|-------------1---------3--------3---------|
G|--0----------0---------0--------0---------|
D|--2----------0---------0--------4---------|
A|--3-(x3)-----3-(x1)----5-(x2)---5-(x2)----|
E|--3---------------------------------------|

Thanks for looking, please rate!
Tap to rate this tab
 
# A B C D E F G H I J K L M N O P Q R S T U V W X Y Z