Song name
# A B C D E F G H I J K L M N O P Q R S T U V W X Y Z

The Subways - I Wont Let You Down tab

Song: I won't let you down
Band: The Subways
Album: All or Nothing

TUNING:  Half Step Down

--------------------------------------------------------------------------

INTRO + VERSE:

eb|--------------------------------|
Bb|--------------------------------|
Gb|--------------2---2---7---7-----|
Db|7-7---5~~-2-2-3---3---x---x-0-0-|
Ab|7-7-------2-2-3---3-0-5---5-0-0-|
Eb|5-5-0-----0-0-1---1-0-------0-0-|
 
   d u d u   u d u   u d u   u d u


PRE-CHORUS:

eb|--------------------------------0-----0---------------1---------|
Bb|----x-------x-------x-----------1---1-----1-----1---------1-0-0-|
Gb|7-7-x-7-7-7-x-9-9-9-x-9-9-9-----2-----------2---2-----------0-0-|
Db|x-x-x-x-x-x-x-x-x-x-x-x-x-x-----2---------------3-----------0-0-|
Ab|5-5-x-5-5-5-x-7-7-7-x-7-7-7-----0---------------3---------------|
Eb|----------------------------0-----------------------------------|

eb|--------------------------------0-----0-------0-------0---------|
Bb|----x-------x-------x-------0---1---1-----1-------1-------1-----|
Gb|7-7-x-7-7-7-x-9-9-9-x-9-9-9-0---2-----------2-------2-------2---|
Db|x-x-x-x-x-x-x-x-x-x-x-x-x-x-0---2-------------------------------|
Ab|5-5-x-5-5-5-x-7-7-7-x-7-7-7-0---0-------------------------------|
Eb|----------------------------------------------------------------|

   1   2   3   4   1   2   3   4
eb|--------------------------------------0---------------1---------|
Bb|----------------------------0-0-1---1-----1-----1---------1-0-0-|
Gb|7---7--77-7-7-9-----9--99-9-0-0-2-----------2---2-----------0-0-|
Db|x---x--xx-x-x-x-----x--xx-x-0-0-2---------------3-----------0-0-|
Ab|5---5--55-5-5-7-----7--77-7-0-0-0---------------3---------------|
Eb|----------------------------------------------------------------|

eb|----------------------------------------------------------------|
Bb|----------------------------------------------------------------|
Gb|7-7-7-7-7-7-----7-7-7-7-7-7---7-9-9-9-9-9-9-9-9-9-9-9-9-9-9-----|
Db|x-x-x-x-x-x-----x-x-x-x-x-x---x-x-x-x-x-x-x-x-x-x-x-x-x-x-x-----|
Ab|5-5-5-5-5-5-----5-5-5-5-5-5---5-7-7-7-7-7-7-7-7-7-7-7-7-7-7-----|
Eb|------------0-0-------------0-------------------------------0-0-|

CHORUS:

eb|----------------------------------------------------------------|
Bb|----------------------------------------------------------------|
Gb|------------------------9-------10--10--10--10--10--1010-9------|
Db|------------------------x-------10--10--10--10--10--1010-x------|
Ab|7---7---7---7---7---7---7-------8---8---8---8---8---8-8--7------|
Eb|5---5---5---5---5---5-0-----0-0-----------------------------0-0-|

eb|------------------------------------------------------------------|
Bb|------------------------------------------------------------------|
Gb|10--10--10--10--10--1010-9------12--12--12121212-13--13--1313-----|
Db|10--10--10--10--10--1010-x------x---x---x-x-x-x--x---x---x-x------|
Ab|8---8---8---8---8---8-8--7------10--10--10101010-11--11--1111-0-0-|
Eb|----------------------------0-0-------------------------------0-0-|

BRIDGE:

the notes of the following chords are picked in a particular pattern.
I'll only give you the chords for now, 
if somebody asks in the comments section I'll try and tab out the picking pattern.

eb|------------------5----------------------|
Bb|8--------6--------5---------4------------|
Gb|9--------7--------5---------3------------|
Db|10-------7--------7---------4------------|
Ab|7--------5--------7---------2------------|
Eb|------------------5----------------------|
                            
eb|------------------5-------------------------|
Bb|8--------6--------5-------------------------|
Gb|9--------7--------5-------------------------|
Db|10-------7--------7---------10------12--13--|
Ab|7--------5--------7---------8-------10--11--|
Eb|------------------5-------------------------|
                              start strumming

Then repeat verse, pre-chorus and chorus and that's it.

===================================================================
x ... mute note
h ... hammer-on
p ... pull-off
/ ... slide up
\ ... slide down
~ ... vibrato

d ... down-strum
u ... up-strum
Tap to rate this tab
 
# A B C D E F G H I J K L M N O P Q R S T U V W X Y Z