The Subways - Burst tab

---------------------------------------------------------------------
			     BURST - The Subways
---------------------------------------------------------------------

This has to be one of The Subways best songs, just a shame itís a B-side and quite hard
to find! Anyhow, nobody had tabbed it out, so I took it upon myself. At a guess it would
seem that this song would be played with all strings half a step down but for lazinessí 
sake Iíve tabbed it otherwise. Fell free to rate and comment:


Intro:
e|-------------------------------------|
B|-------------------------------------|
G|-------------------------------------| x4
D|-------------------------------------|
A|-1-1-4-4-4-4-4-4---------6-6---------|
E|-----------------2-2-2-2-----4-5-----|

Main Riff/Verse:
e|-------------------------------------|
B|-------------------------------------|
G|--3-----3---5---6--------------------| x8
D|-------------------------------------|
A|-1--1-1---6---8----------------------|
E|-------------------------------------|

Pre-Chorus:
e|-------------------------------------|
B|-------------------------------------|
G|-------------------------------------| x3
D|-6-6-6-6-6-6-6-6-11-11-11-11-8-8-8-8-|
A|-4-4-4-4-4-4-4-4-9--9--9--9--6-6-6-6-|
E|-------------------------------------|

e|-------------------------------------|
B|-------------------------------------|
G|-------------------------------------|
D|-8-8-8-8-8-8-8-8-8-8-8-8-8-8-8-8-8-8-|
A|-6-6-6-6-6-6-6-6-6-6-6-6-6-6-6-6-6-6-|
E|-------------------------------------|

Chorus:
e|-------------------------------------|
B|-------------------------------------|
G|-------------------------------------| x4
D|-3-3-6-6-6-6-6-6---------8-8---------|
A|-1-1-4-4-4-4-4-4-4-4-4-4-6-6-6-7-----|
E|-----------------2-2-2-2-----4-5-----|

Verse 2: (palm mute)
e|-------------------------------------|
B|-------------------------------------|
G|-8-8-8-8-6-6-6---------5---6---------|
D|-8-8-8-8-6-6-6---x7------------------|
A|-6-6-6-6-4-4-4-------6---8-----------|
E|-------------------------------------|

Bridge:
e|-------------------------------------|
B|-------------------------------------|
G|-8-----------8--8-8-8-8-8-8-8-8------|
D|-8-------x3--8--8-8-8-8-8-8-8-8------|
A|-6-12s0------6--6-6-6-6-6-6-6-6------|
E|--------------------------------4-5--|



e|-------------------------------------|
B|-------------------------------------|
G|-------------------------------------| x3
D|-------------------------------------|
A|-1-1-4-4-4-4-4-4---------6-6---------|
E|-----------------2-2-2-2-----4-5-----|

e|-------------------------------------|
B|-------------------------------------|
G|-------------------------------------| x4
D|-----------------4-4---4-4-----------|
A|-1-1-4-4-4-4-4-4-4-4---4-4-----------|
E|-----------------2-2---2-2-----------|

Outro:
e|----------------------------------------|
B|----------------------------------------|
G|-8-----------8--8-8-8-8-8-8-8-8---------|
D|-8-------x3--8--8-8-8-8-8-8-8-8---------|
A|-6-12s0------6--6-6-6-6-6-6-6-6---------|
E|--------------------------------4-5-6s0-|


Intro
Main Riff/Verse
Pre-Chorus
Chorus
Main Riff/Verse x4
Verse 2
Main Riff/Verse x4
Pre-Chorus
Chorus
Bridge
Chorus
Outro

Lyrics: (from azlyrics.com)
I'm in the backroom
A sense of cruelty that you put on me
Another reason
Another chance to work your tease on me

Now, feel the fire at your fingertips

You burst the light when you smile, when you smile
I can't control myself
I'll wait forever just to see you shine
I can't control myself

Out in the dead light
I'm not afraid and I don't want to stay inside
Fool for a reason
I make mistakes but at least I fucking try

I'm in the backroom
A sense of cruelty that you put on me
Another reason
Another chance to work your tease on me

Now, feel the fire at your fingertips

You burst the light when you smile, when you smile
I can't control myself
I'll wait forever just to see you shine

Enjoy, Marshy1991
Tap to rate this tab
 
# A B C D E F G H I J K L M N O P Q R S T U V W X Y Z