Song name
# A B C D E F G H I J K L M N O P Q R S T U V W X Y Z

The Subways - We Dont Need Money To Have A Good Time tab

-----------------------------------------------------------------------------            
We Don't Need Money To Have A Good Time - The Subways
-----------------------------------------------------------------------------
Tabbed by: Darel13712
Email: darel142857@gmail.com

Tuning: Standard

Main Riff
e|--------------------------------------------------------------------------|
B|--------------------------------------------------------------------------|
G|-----------x--------x-8-8----x--------x----------x--------x-8-------------|
D|--10-10----x-8-8----x-8-8----x-8-8----x-10-10----x-8-8----x-8--8--10--8---|
A|--10-10----x-8-8----x-6-6----x-8-8----x-10-10----x-8-8----x-6--8--10--8---|
E|---8--8----x-6-6----x--------x-6-6----x--8--8----x-6-6----x----6---8--6---|

e|--------------------------------------------------------------------------|
B|--------------------------------------------------------------------------|
G|-----------x--------x-8-8----x--------x----------x--------x-8-------------|
D|--10-10----x-8-8----x-8-8----x-8-8----x-10-10----x-8-8----x-8--8--10--8-10|
A|--10-10----x-8-8----x-6-6----x-8-8----x-10-10----x-8-8----x-6--8--10--8-10|
E|---8--8----x-6-6----x--------x-6-6----x--8--8----x-6-6----x----6---8--6--8|

On the lyrics[x3]       |  [x3]  |
e|--------------|-------|--------|-------------------------|
B|--------------|-------|--------|-------------------------|
G|--------------|-------|--------|-------------------------|
D|----8----10---|---10--|88888866|-----8-8-8-8--9-9-9-9----|
A|----8----10---|---10--|88888866|-----8-8-8-8--9-9-9-9----|
E|----6-----8---|----8--|66666644|-----6-6-6-6--7-7-7-7----|

Chorus [x4]
e|------------------------------------------------|
B|------------------------------------------------|
G|------5-5-5-5--7-7-7-7--8-8-8-8--10-10-10-10----|
D|------5-5-5-5--7-7-7-7--8-8-8-8--10-10-10-10----|
A|------3-3-3-3--5-5-5-5--6-6-6-6---8--8--8--8----|
E|------------------------------------------------|

And repeat it all until you get satisfied =)

Nice song btw. Enjoy! \m/
Tap to rate this tab
 
# A B C D E F G H I J K L M N O P Q R S T U V W X Y Z