Song name
# A B C D E F G H I J K L M N O P Q R S T U V W X Y Z

The Subways - Alright tab

-------------------------------------------------------------------------------
			     Alright - The Subways
-------------------------------------------------------------------------------
Tabbed by: Jason Walsh (walshjs01)
Email:walshjs01@hotmail.co.uk

Tuning: 1/2 step down

The chords and melody are right, listen to the song for the rhythms,

I was reading through other tabs for this song and found them largely confusing and many 
chords weren't correct, i listened through the song and worked out the correct chords 
and the melodies which are actually easier to play than displayed on other tabs.

thank you for choosing my tab! and email me if there are any problems :)

Introduction + Verse 1

Guitar Part 1
This is repeated thought the intro and verse up until the pre-chorus.

eb|--3-3-3-3--3-3-3--3-3-2--2-3-3--|
Bb|--3-3-3-3--3-3-3--3-3-3--3-3-3--|
Gb|--0-0-0-0--0-0-0--0-0-2--2-2-2--|
Db|--2-2-2-2--2-2-0--0-0-0--0-0-0--|
Ab|--3-3-3-2--2-2-2--2-2-----------|
Eb|--------0--0-0-3--3-3-----------|


Guitar Part 2
After Guitar Part 1 is played twice, this melody is played on a second guitar over the top.

eb|-7-----7------7------10-----------7-----7------7------10----------|
Bb|---8------8------8------------------8------8------8---------------|
Gb|-----9------9------9------------------9------9------9-------------|
Db|------------------------------------------------------------------|
Ab|------------------------------------------------------------------|
Eb|------------------------------------------------------------------|

Pre-Chorus
"make our way, until we see..."

eb|---------------------------------------------------------------------------------|
Bb|-----------------------8-8---8---8-8---8------------------------8-8---8--8-------|
Gb|-8---8-8---8---8-8-----9-9---9---9-9---9--8---8-8---8---8-8-----9-9---9--9---7---|
Db|-9---9-9---9---9-9-----9-9---9---9-9---9--9---9-9---9---9-9-----9-9---9--9---7---|
Ab|-9---9-9---9---9-9-----7-7---7---7-7---7--9---9-9---9---9-9-----7-7---7--7---5---|
Eb|-7---7-7---7---7-7------------------------7---7-7---7---7-7----------------------|

Chorus
"Alright..."

eb|--------------------------------------------------------|
Bb|--------------------------------------------------------|
Gb|----------------------7--------------------------7------|
Db|-5--5-5--5-5-5-5--5-5-7-----2--2-2--2-2-2-2--2-2-7------|
Ab|-5--5-5--5-5-5-5--5-5-5-----2--2-2--2-2-2-2--2-2-5------|
Eb|-3--3-3--5-3-3-3--3-3-------0--0-0--0-0-0-0--0-0--------| x2

Verse 2

Guitar Part 1
This is repeated again thought verse 2 until the pre-chorus.

eb|--3-3-3-3--3-3-3--3-3-2--2-3-3--|
Bb|--3-3-3-3--3-3-3--3-3-3--3-3-3--|
Gb|--0-0-0-0--0-0-0--0-0-2--2-2-2--|
Db|--2-2-2-2--2-2-0--0-0-0--0-0-0--|
Ab|--3-3-3-2--2-2-2--2-2-----------|
Eb|--------0--0-0-3--3-3-----------|

Guitar Part 2
This part is played again immediately after the chorus

eb|-7-----7------7------10-----------7-----7------7------10----------|
Bb|---8------8------8------------------8------8------8---------------|
Gb|-----9------9------9------------------9------9------9-------------|
Db|------------------------------------------------------------------|
Ab|------------------------------------------------------------------|
Eb|------------------------------------------------------------------|

Pre-Chorus
"make a change, find the reasons why..."

eb|---------------------------------------------------------------------------------|
Bb|-----------------------8-8---8---8-8---8------------------------8-8---8--8-------|
Gb|-8---8-8---8---8-8-----9-9---9---9-9---9--8---8-8---8---8-8-----9-9---9--9---7---|
Db|-9---9-9---9---9-9-----9-9---9---9-9---9--9---9-9---9---9-9-----9-9---9--9---7---|
Ab|-9---9-9---9---9-9-----7-7---7---7-7---7--9---9-9---9---9-9-----7-7---7--7---5---|
Eb|-7---7-7---7---7-7------------------------7---7-7---7---7-7----------------------|

Chorus
"Alright..."

eb|--------------------------------------------------------|
Bb|--------------------------------------------------------|
Gb|----------------------7--------------------------7------|
Db|-5--5-5--5-5-5-5--5-5-7-----2--2-2--2-2-2-2--2-2-7------|
Ab|-5--5-5--5-5-5-5--5-5-5-----2--2-2--2-2-2-2--2-2-5------|
Eb|-3--3-3--5-3-3-3--3-3-------0--0-0--0-0-0-0--0-0--------| x2

Bridge
"And I wonder..."

eb|------------------------------------------------------------|
Bb|------------------------------------------------------------|
Gb|-------7---------7---------7---------7---------7---------7--|
Db|---5---------5---------5---------5---------5---------5------|
Ab|-7---7-----7---7-----7---7-----7---7-----7---7-----7---7----|
Eb|------------------------------------------------------------|

eb|---------------------------------------|
Bb|---------------------------------------|
Gb|-------5---------5---------7---------7-|
Db|---5---------5---------7---------7-----|
Ab|-3---3-----3---3-----5---5-----5---5---|
Eb|---------------------------------------|

Chorus
"Alright..."

eb|--------------------------------------------------------|
Bb|--------------------------------------------------------|
Gb|----------------------7--------------------------7------|
Db|-5--5-5--5-5-5-5--5-5-7-----2--2-2--2-2-2-2--2-2-7------|
Ab|-5--5-5--5-5-5-5--5-5-5-----2--2-2--2-2-2-2--2-2-5------|
Eb|-3--3-3--5-3-3-3--3-3-------0--0-0--0-0-0-0--0-0--------| x4

Outro

Guitar Part 1

eb|-3-3-3-3-3-3-3-3-3-3-3-3-2-2-2-2-|    |-3--------------------|
Bb|-3-3-3-3-3-3-3-3-3-3-3-3-3-3-3-3-|    |-3--------------------|
Gb|-0-0-0-0-0-0-0-0-0-0-0-0-2-2-2-2-|    |-0--------------------|
Db|-0-0-0-0-0-0-0-0-0-0-0-0-0-0-0-0-|    |-0---------------5--5-|
Ab|-2-2-2-2-2-2-2-2-2-2-2-2---------|    |-2---------------5--5-|
Eb|-3-3-3-3-3-3-3-3-2-2-2-2---------| x8 |-3---------------3--3-|

Guitar Part 2

eb|----------------------------------------10-------|    |------------------|
Bb|-12-12-12-10-12-12-12-10-12-12-12-10-------12-10-|    |-12---------------|
Gb|-------------------------------------------------|    |------------------|
Db|-------------------------------------------------|    |------------------|
Ab|-------------------------------------------------|    |------------------|
Eb|-------------------------------------------------| x8 |------------------|
Tap to rate this tab
 
# A B C D E F G H I J K L M N O P Q R S T U V W X Y Z