Song name
# A B C D E F G H I J K L M N O P Q R S T U V W X Y Z

The Subways - Kiss Kiss Bang Bang tab

                     Kiss Kiss Bang Bang - The Subways

Tabbed by: Rohan


Tuning: Eb tuning (Eb, Ab, Db, Gb, Bb, Eb)
Intro:
eb|-------------------------------------------------------------------|
Bb|-------------------------------------------------------------------|
Gb|-----9-----11----13--11--9---8-6-6-6-6-6-6-6-6-6-6-6-6-4-4-4-4-----|
Db|-------------------------------6-6-6-6-6-6-6-6-6-6-6-6-4-4-4-4-----|
Ab|-----7-----9-----11--9---7---6-4-4-4-4-4-4-4-4-4-4-4-4-2-2-2-2-----|
Eb|-0-0-0-0-0-0-0-0-0-0-0-0-0-0-0-------------------------------------|

Verse: Mostly just the bass, with some noodly bits around a high E as a bit of a build 
to chorus, something like:
Bb|-8b----|
Gb|-9b-9~-|
Db|----9~-|

Then pre-chorus ('She's gonna leave me paralysed...'):
eb|---------|
Bb|---------|
Gb|---------|
Db|-9-------|
Ab|-7x32(?)-|
Eb|-0-------|

Chorus:
eb|-0-----0-----4-----2-----|
Bb|-0-----0-----5-----4-----|
Gb|-1-----2-----6-----4-----|
Db|-2-x8--4-x8--6-x8--4-x8--|
Ab|-2-----4-----4-----2-----|
Eb|-0-----0-----------------|

Then the breakdown is simply an A5 let rung a couple times and then PM'ed LOTS!

Not too hard and REALLY good fun to play, hope you enjoy it!

If you see any glaring mistakes, or tab the noodly bits right, lemme know and I'll add 
your name and tab to this, keep it all simple :)

Have fun!
Tap to rate this tab
# A B C D E F G H I J K L M N O P Q R S T U V W X Y Z