Song name
# A B C D E F G H I J K L M N O P Q R S T U V W X Y Z

The Subways - Do You Dig Me Baby tab

Inro + Verse

  Intro}
E|--------}-----------------------------------||
B|--s-----}-----------------------------------||
G|p-l-----}-----------------------------------||repeat as many times needed
D|i-i-----}-----------------------------------||
A|c-d-----}--------------5-4------------------||
E|k-e-----}------0-4-0-4----------------------||



Bridge

E|------------------------------------------------||
B|------------------------------------------------||
G|------------------------------------------------|| X 4
D|------------------------------------------------||
A|------------------------------------------------||
E|-3b-0-0-0-0-5-5-5-5-3-3-3-3---------------------||

Chorus

E|------------------------------------------------------------------------||
B|------------------------------------------------------------------------||
G|-----------------1-1-1-1-1-1-1-1----------------------------------------||
D|-5-5-5-5-5-5-5-5-2-2-2-2-2-2-2-2-7-7-7-7-7-7-7-7-5-5-5-5-5-5-5-5--------||
A|-5-5-5-5-5-5-5-5-2-2-2-2-2-2-2-2-7-7-7-7-7-7-7-7-5-5-5-5-5-5-5-5--------||
E|-3-3-3-3-3-3-3-3-0-0-0-0-0-0-0-0-5-5-5-5-5-5-5-5-3-3-3-3-3-3-3-3--------||
Tap to rate this tab
# A B C D E F G H I J K L M N O P Q R S T U V W X Y Z