Song name
# A B C D E F G H I J K L M N O P Q R S T U V W X Y Z

The Subways - She Sun tab

Help us improve GuitareTab! Take a short survey!
She Sun-The Subways

Intro (Acoustic)
E|-2-22-2-2-2-22-2-2-2-0-2-22-2-2-2-22-2-2-2-0-|
B|-2-22-2-2-2-22-2-2-2-0-3-33-3-3-3-33-3-3-3-0-|
G|-2-22-2-2-2-22-2-2-2-0-2-22-2-2-2-22-2-2-2-0-|
D|-4-44-4-4-4-44-4-4-4-0-0----0---0----0-0---0-| x4
A|-4-44-4-4-4-44-4-4-4-0---------------------0-|
E|-2----2---2----2-2---------------------------|

Verse
      'She sun...'
E|-2-22-2-2-2-22-2-2-2-0-2-22-2-2-2-22-2-2-2-0-|
B|-2-22-2-2-2-22-2-2-2-0-3-33-3-3-3-33-3-3-3-0-|
G|-2-22-2-2-2-22-2-2-2-0-2-22-2-2-2-22-2-2-2-0-|
D|-4-44-4-4-4-44-4-4-4-0-0----0---0----0-0---0-| x4
A|-4-44-4-4-4-44-4-4-4-0---------------------0-|
E|-2----2---2----2-2---------------------------|

Chorus
Guitar 1 (Acoustic)
        'Sea change...'
E|-2-22-2-2-2-22-2-2-2-0-2-22-2-2-2-22-2-2-2-0-|
B|-3-33-3-3-3-33-3-3-3-0-3-33-3-3-3-33-3-3-3-0-|
G|-4-44-4-4-4-44-4-4-4-0-2-22-2-2-2-22-2-2-2-0-|
D|-4-44-4-4-4-44-4-4-4-0-0----0---0----0-0---0-| x2
A|-2-22-2-2-2-22-2-2-2-0---------------------0-|
E|---------------------------------------------|

Order:
Intro x4
Verse x4
Chorus x2
Intro x4
Verse x4
Chorus x2
Verse
Related for She Sun tab