Guitaretab - guitar tabs
Song name
# A B C D E F G H I J K L M N O P Q R S T U V W X Y Z

The Subways - At 1 Am tab

At 1 AM-The Subways

Intro
Eb|------------------------|
Bb|--------------xxxxxxx---|
Gb|-9-9-x-7-x-9--xxxxxxx---|
Db|-9-9-x-7-x-9--xxxxxxx---| x3
Ab|-7-7-x-5-x-7--xxxxxxx---|
Eb|------------------------|

Eb|-----------------|
Bb|-----------------|
Gb|-5-5-555---------|
Db|-5-5-555-5-5-555-|
Ab|-3-3-333-5-5-555-|
Eb|---------3-3-333-|

Verse
Eb|------------------------|
Bb|--------------xxxxxxx---|
Gb|-9-9-x-7-x-9--xxxxxxx---|
Db|-9-9-x-7-x-9--xxxxxxx---| x3
Ab|-7-7-x-5-x-7--xxxxxxx---|
Eb|------------------------|

Eb|-----------------|
Bb|-----------------|
Gb|-5-5-555---------|
Db|-5-5-555-5-5-555-|
Ab|-3-3-333-5-5-555-|
Eb|---------3-3-333-|

Eb|------------------------|
Bb|--------------xxxxxxx---|
Gb|-9-9-x-7-x-9--xxxxxxx---|
Db|-9-9-x-7-x-9--xxxxxxx---| x3
Ab|-7-7-x-5-x-7--xxxxxxx---|
Eb|------------------------|

Eb|-----------------|
Bb|-----------------|
Gb|-5-5-555---------|
Db|-5-5-555-5-5-555-|
Ab|-3-3-333-5-5-555-|
Eb|---------3-3-333-|

Chorus
Eb|-----------------------|
Bb|-----------------------|
Gb|-9-9-x-7-x-9-----------|
Db|-9-9-x-7-x-9--5-2-5-2--| x3
Ab|-7-7-x-5-x-7--5-2-5-2--|
Eb|--------------3-0-3-0--|


Eb|-----------------|
Bb|-----------------|
Gb|-5-5-555---------|
Db|-5-5-555-5-5-555-|
Ab|-3-3-333-5-5-555-|
Eb|---------3-3-333-|

Bridge
Eb|------------------------|
Bb|--------------xxxxxxx---|
Gb|-9-9-x-7-x-9--xxxxxxx---|
Db|-9-9-x-7-x-9--xxxxxxx---| x3
Ab|-7-7-x-5-x-7--xxxxxxx---|
Eb|------------------------|

Eb|-----------------|
Bb|-----------------|
Gb|-5-5-555---------|
Db|-5-5-555-5-5-555-|
Ab|-3-3-333-5-5-555-|
Eb|---------3-3-333-|

Verse
Eb|------------------------|
Bb|--------------xxxxxxx---|
Gb|-9-9-x-7-x-9--xxxxxxx---|
Db|-9-9-x-7-x-9--xxxxxxx---| x3
Ab|-7-7-x-5-x-7--xxxxxxx---|
Eb|------------------------|

Eb|-----------------|
Bb|-----------------|
Gb|-5-5-555---------|
Db|-5-5-555-5-5-555-|
Ab|-3-3-333-5-5-555-|
Eb|---------3-3-333-|
[ Tab from: http://www.guitaretab.com/t/the-subways/72336.html ]
Eb|------------------------|
Bb|--------------xxxxxxx---|
Gb|-9-9-x-7-x-9--xxxxxxx---|
Db|-9-9-x-7-x-9--xxxxxxx---| x3
Ab|-7-7-x-5-x-7--xxxxxxx---|
Eb|------------------------|

Eb|-----------------|
Bb|-----------------|
Gb|-5-5-555---------|
Db|-5-5-555-5-5-555-|
Ab|-3-3-333-5-5-555-|
Eb|---------3-3-333-|

Chorus
Eb|-----------------------|
Bb|-----------------------|
Gb|-9-9-x-7-x-9-----------|
Db|-9-9-x-7-x-9--5-2-5-2--| x3
Ab|-7-7-x-5-x-7--5-2-5-2--|
Eb|--------------3-0-3-0--|
	
Eb|-----------------|
Bb|-----------------|
Gb|-5-5-555---------|
Db|-5-5-555-5-5-555-|
Ab|-3-3-333-5-5-555-|
Eb|---------3-3-333-|

Post Chorus
Eb|-----------------------|
Bb|-----------------------|
Gb|-9-9-x-7-x-9-----------|
Db|-9-9-x-7-x-9--5-2-5-2--| x3
Ab|-7-7-x-5-x-7--5-2-5-2--|
Eb|--------------3-0-3-0--|
	
Eb|-----------------|
Bb|-----------------|
Gb|-5-5-555---------|
Db|-5-5-555-5-5-555-|
Ab|-3-3-333-5-5-555-|
Eb|---------3-3-333-|

Interlude 
    'At 1AM     At 1AM'
Eb|------------------------|
Bb|--------------xxxxxxx---|
Gb|-9-9-x-7-x-9--xxxxxxx---|
Db|-9-9-x-7-x-9--xxxxxxx---| x3
Ab|-7-7-x-5-x-7--xxxxxxx---|
Eb|------------------------|
   'Got this Feelin'
Eb|-----------------|
Bb|-----------------|
Gb|-5-5-555---------|
Db|-5-5-555-5-5-555-|
Ab|-3-3-333-5-5-555-|
Eb|---------3-3-333-|
   'Got this Feeling'
Eb|------------------------|
Bb|------------------------|
Gb|-9-9-x-7-x-9----4bu-----|
Db|-9-9-x-7-x-9------------| 
Ab|-7-7-x-5-x-7------------|
Eb|------------------------|

Eb|------------------------|
Bb|--------------xxxxxxx---|
Gb|-9-9-x-7-x-9--xxxxxxx---|
Db|-9-9-x-7-x-9--xxxxxxx---| x2
Ab|-7-7-x-5-x-7--xxxxxxx---|
Eb|------------------------|

Eb|-----------------|
Bb|-----------------|
Gb|-5-5-555---------|
Db|-5-5-555-5-5-555-|
Ab|-3-3-333-5-5-555-|
Eb|---------3-3-333-|

Outro
Eb|---------------|
Bb|---------------|
Gb|-9-9-x-7-x-9---|
Db|-9-9-x-7-x-9---| 
Ab|-7-7-x-5-x-7---|
Eb|---------------|
Related for At 1 Am tab