Guitaretab - guitar tabs
Song name
# A B C D E F G H I J K L M N O P Q R S T U V W X Y Z

The Subways - A Plain Above tab

A Plain Above Tab

Intro

|------------------------|
|------------------------|
|------------------------|
|------------------------|
|----1-1-1---------------|
|-0-0-----2b-0-1-0-1-0-3-|

|-----------------|
|-----------------|
|-5-5-5-0-5-5-5-5-|
|-5-5-5-0-4-4-4-4-|
|-5-5-5-0-4-4-4-4-|
|-3-3-5-0-2-2-2-2-|

Chords:

Bb D A C

Bb
My mind's a gun
D
A loaded gun
A                           C
Another mood has come and gone

Bb
I'm getting lost
D
Lost in time
A                         C
A plain above I lost inside
Bb

Chorus:
[ Tab from: http://www.guitaretab.com/t/the-subways/75455.html ]
|---------------------------------|
|---------------------------------|
|-5-5-5-5-0-3-3-3-3-3-------------|
|-5-5-5-5-0-4-4-4-4-4-3-3-3-3-3-3-|
|-5-5-5-5-0-4-4-4-4-4-3-3-3-3-3-3-|
|-3-3-3-3-0-2-2-2-2-2-1-1-1-1-1-1-|
   Oh, oh oh, oh oh, hey hey hey

Bb D A C

Bb
Another one
D
Another one
A                           C
Another one has come and gone

Bb
I'm getting lost
D
Lost in time
A                         C
A plain above a plain that's mine
Bb

Chorus:

|---------------------------------|
|---------------------------------|
|-5-5-5-5-0-3-3-3-3-3-------------|
|-5-5-5-5-0-4-4-4-4-4-3-3-3-3-3-3-|
|-5-5-5-5-0-4-4-4-4-4-3-3-3-3-3-3-|
|-3-3-3-3-0-2-2-2-2-2-1-1-1-1-1-1-|
   Oh, oh oh, oh oh, hey hey hey

For the bit after the second chorus, its just the intro again with this bit:
|-----------------|
|-----------------|
|-5-5-5-0-5-5-5-5-|
|-5-5-5-0-4-4-4-4-|
|-5-5-5-0-4-4-4-4-|
|-3-3-5-0-2-2-2-2-|
played as many times needed

Not sure about the accuracy of the chorus but everything else should be correct.
Related for A Plain Above tab
Advertisement will be closed in 10 seconds