Song name
# A B C D E F G H I J K L M N O P Q R S T U V W X Y Z

The Sudden Passion - Herpes Of The Heart tab

Herpes of the Heart - The Sudden Passion

Here is their website: http://thesuddenpassion.com/

The music video to this song: http://www.youtube.com/watch?feature=player_embedded&v=37Fcx-5Gqag

   Intro:

e|-------------------------------------------------|
B|------0------------------------------------------|
G|----------0--------------------------------------|  x2 for intro
D|--------------0----------------0h2---0-----------| 
A|--------------------3----3-----------------------|  
E|--3----------------------------------------------|


*Repeat tab above for Verse*

    Verse:

Maybe this August heat has got to me

But Im ready more than ever to dissolve this thing 

If I change lovers like I change my jeans 

This pairís worn out and split in all the seams 


    Pre-chorus:

 G             Cadd9    G                   Cadd9
Comfortable or miserable dont hold back just say it say it 

  G             Cadd9
is it worth the time it took 

G                       Em
darling I canít fake it anymore 

                                           G
I think it really could have happened this time 

                   Em
baby Iíma have to decline 

                        G
hang up the phone come over I'll explain it 

Em                         G
Iím going to go away for a while 

                Am
50,000 nautical miles, to find a place where 

C             Am       G
I can feel anonymous again.


    Chorus:

G                       
I was looking just to play dirty 

Em
you were looking for a diamond ring 

Am
doesnít have to be a tragedy 

C                       Am
I hope you forgive me so I can forget you 

G
I was looking just to play dirty 

Em
you were looking for a diamond ring 

Am
doesn't have to be a tragedy 

C          Am      
it doesn't have to be 

e|-------------------------------------------------|
B|------0------------------------------------------|
G|----------0--------------------------------------| 
D|--------------0----------------0h2---0-----------| 
A|--------------------3----3-----------------------|  
E|--3----------------------------------------------|

    Verse:


Good enough is hardly good at all 

you said it yourself 

and starting all again seems miserable 

cause love is wealth 

and all those drugs we took to feel young and adored 

you fooled em all if that was what you were going for


   Pre-chorus:

 G             Cadd9    G                   Cadd9
Comfortable or miserable dont hold back just say it say it 

  G             Cadd9
is it worth the time it took 

G                       Em
darling I canít fake it anymore 

                                           G
I think it really could have happened this time 

                   Em
baby Iíma have to decline 

                        G
hang up the phone come over I'll explain it 

Em                         G
Iím going to go away for a while 

                Am
50,000 nautical miles, to find a place where 

C             Am       G
I can feel anonymous again.


    Chorus:

G                       
I was looking just to play dirty 

Em
you were looking for a diamond ring 

Am
doesnít have to be a tragedy 

C                       Am
I hope you forgive me so I can forget you 

G
I was looking just to play dirty 

Em
you were looking for a diamond ring 

Am
doesn't have to be a tragedy 

C          Am      
it doesn't have to be 

e|-------------------------------------------------|
B|------0------------------------------------------|
G|----------0--------------------------------------| 
D|--------------0----------------0h2---0-----------| 
A|--------------------3----3-----------------------|  
E|--3----------------------------------------------|

    Verse:

Maybe this August heat has got to me

But Im ready more than ever to dissolve this thing 

If I change lovers like I change my jeans 

This pairís worn out and split in all the seams 

Something had to give eventually.
Tap to rate this tab
 
# A B C D E F G H I J K L M N O P Q R S T U V W X Y Z