Guitaretab - guitar tabs
Song name
# A B C D E F G H I J K L M N O P Q R S T U V W X Y Z

The Suicide File - I Hate Rock N Roll tab

The Suicide File - I Hate Rock 'N' Roll

Info: Modeate tempo 160

e|--------------------------|
B|--------------------------|
G|--------------------------|
D|-----5--------------------| 4X
A|7-5--3--5--5-7-7-7-5-7-7-7|
E|5-3-----3--3-5-5-5-3-5-5-5|

e|--------------------------------|
B|--------------------------------|
G|55555555555555553333333388887777|
D|33333333333333331111111166665555|
A|--------------------------------|
E|--------------------------------|
[ Tab from: http://www.guitaretab.com/t/the-suicide-file/95039.html ]
e|--------------------------|
B|--------------------------|
G|--------------------------|
D|-----5--------------------| 4X
A|7-5--3--5--5-7-7-7-5-7-7-7|
E|5-3-----3--3-5-5-5-3-5-5-5|


e|-----------------------|
B|-----------------------|
G|-----------------------|
D|-----------------------|
A|7---3-5-3-2-1--5-5---7-|3x
E|5--------------3-3---5-|


e|-----|
B|-----|
G|-----|
D|-----|
A|7----|
E|5----|
let ring for 1/2 Note

e|--------|
B|--------|
G|--------|
D|--------|4X
A|5-555555|
E|3-333333|
PM........

e|--------|
B|--------|
G|--------|
D|--------|
A|7-777777|
E|5-555555|

e|-----|
B|-----|
G|-----|
D|-----|
A|7----|
E|5----|
let ring till end of song.

Please Rate and Comment. Tabbed by UG's Winter Solstice.
Related for I Hate Rock N Roll tab