Song name
# A B C D E F G H I J K L M N O P Q R S T U V W X Y Z

The Suicide File - A Pleasure To Have In Class tab

I only separated the guitars when they were playing completely different things.
b - bend
/ - slide

Intro x2
e|-------------|
B|-------------|
G|-4--7--------|
D|-4--7--7--5--|
A|-2--5--7--5--|
E|-------5--3--|

Guitar 1 x8
e|--------------------------------|
B|--------------------------------|
G|-7-7------7-7-----7-7----9b-9b--|
D|-----9-7------9-7-----9---------|
A|--------------------------------|
E|--------------------------------|
Guitar 2 x1
e|-------------------------------------------------------------------|
B|-------------------------------------------------------------------|
G|-4-4-4-4-4-4-4-4-4-4-4-4-4-4-4-4--7-7-7-7-7-7-7-7-7-7-7-7-7-7-7-7--|
D|-4-4-4-4-4-4-4-4-4-4-4-4-4-4-4-4--7-7-7-7-7-7-7-7-7-7-7-7-7-7-7-7--|
A|-2-2-2-2-2-2-2-2-2-2-2-2-2-2-2-2--5-5-5-5-5-5-5-5-5-5-5-5-5-5-5-5--|
E|-------------------------------------------------------------------|
Guitar 2 x1
e|-------------------------------------------------------------------|
B|-------------------------------------------------------------------|
G|-------------------------------------------------------------------|
D|-7-7-7-7-7-7-7-7-7-7-7-7-7-7-7-7--5-5-5-5-5-5-5-5-5-5-5-5-5-5-5-5--|
A|-7-7-7-7-7-7-7-7-7-7-7-7-7-7-7-7--5-5-5-5-5-5-5-5-5-5-5-5-5-5-5-5--|
E|-5-5-5-5-5-5-5-5-5-5-5-5-5-5-5-5--3-3-3-3-3-3-3-3-3-3-3-3-3-3-3-3--|


Guitar 1 x4
e|-----------------------------------------------------------------------|
B|-----------------10-10-10-10-10-10------------------10-10-10-10-10-10--|
G|-7/9-9-9-9-9-9-9--------------------7/9-9-9-9-9-9-9--------------------|
D|-----------------------------------------------------------------------|
A|-----------------------------------------------------------------------|
E|-----------------------------------------------------------------------|

e|-----------------------------------------------------------|
B|-----------------10-10-10-10-10-10-------------------------|
G|-7/9-9-9-9-9-9-9--------------------7/9-9-9-9-9-9-9--7-----|
D|-----------------------------------------------------7--7--|
A|-----------------------------------------------------5--7--|
E|--------------------------------------------------------5--|
Guitar 2 x1 (plam mute it except the last 2 chords)
e|---------------------------------------------------------------------|
B|---------------------------------------------------------------------|
G|-4-4-4-4-4-4-4-4-4-4-4-4-4-4-4-4----7-7-7-7-7-7-7-7-7-7-7-7-7-7-7-7--|
D|-4-4-4-4-4-4-4-4-4-4-4-4-4-4-4-4----7-7-7-7-7-7-7-7-7-7-7-7-7-7-7-7--|
A|-2-2-2-2-2-2-2-2-2-2-2-2-2-2-2-2----5-5-5-5-5-5-5-5-5-5-5-5-5-5-5-5--|
E|---------------------------------------------------------------------|

e|-----------------------------------------------------------|
B|-----------------------------------------------------------|
G|-----------------------------------------------------7-----|
D|-7-7-7-7-7-7-7-7-7-7-7-7-7-7-7-7----5-5-5-5-5-5-5-5--7--7--|
A|-7-7-7-7-7-7-7-7-7-7-7-7-7-7-7-7----5-5-5-5-5-5-5-5--5--7--|
E|-5-5-5-5-5-5-5-5-5-5-5-5-5-5-5-5----3-3-3-3-3-3-3-3-----5--|


Verse x6
e|---------------------------------------------|
B|---------------------------------------------|
G|-4-4-4-4-4-4-4-4--7-----4-4-4-4-4-4-4-4--9b--|
D|-4-4-4-4-4-4-4-4--7-7---4-4-4-4-4-4-4-4------|
A|-2-2-2-2-2-2-2-2--5-7---2-2-2-2-2-2-2-2------|
E|--------------------5------------------------|


Chorus x2
e|-----------------------------------------------------|
B|-----------------------------------------------------|
G|-4-4-4-4-4-4--7-7-7-7-7-7----------------------------|
D|-4-4-4-4-4-4--7-7-7-7-7-7--7-7-7-7-7-7--5-5-5-5-5-5--|
A|-2-2-2-2-2-2--5-5-5-5-5-5--7-7-7-7-7-7--5-5-5-5-5-5--|
E|---------------------------5-5-5-5-5-5--3-3-3-3-3-3--|


Bridge x1
Guitar 1
e|-----------------------------------------------------------|
B|-----------------------------------------------------------|
G|-7/9-9-9-9-9--7/9-9-9-9-9--7/9-9-9-9-9--9/11-12-11-9/11/9--|
D|-x-x-x-x-x-x--x-x-x-x-x-x--x-x-x-x-x-x--x-x--x--x--x-x--x--|
A|-5/7-7-7-7-7--5/7-7-7-7-7--5/7-7-7-7-7--7/9--10-9--7/9-/7--|
E|-----------------------------------------------------------|

e|------------------------------------------------------|
B|------------------------------------------------------|
G|-7/9-9-9-9-9--9/11-11-11-11-11--11/12-12-12-12---7----|
D|-x-x-x-x-x-x--x-x--x--x--x--x---x--x--x--x--x----7-7--|
A|-5/7-7-7-7-7--7/9--9--9--9--9---9-/10-10-10-10---5-7--|
E|---------------------------------------------------5--|
Guitar 2
e|-----------------------------------------------------|
B|-----------------------------------------------------|
G|-4-4-4-4-4-4--7-7-7-7-7-7----------------------------|
D|-4-4-4-4-4-4--7-7-7-7-7-7--7-7-7-7-7-7--5-5-5-5-5-5--|
A|-2-2-2-2-2-2--5-5-5-5-5-5--7-7-7-7-7-7--5-5-5-5-5-5--|
E|---------------------------5-5-5-5-5-5--3-3-3-3-3-3--|

e|---------------------------------------------|
B|---------------------------------------------|
G|-4-4-4-4-4-4--7-7-7-7-7-7---------------7----|
D|-4-4-4-4-4-4--7-7-7-7-7-7--7-7-7-7-7-7--7-7--|
A|-2-2-2-2-2-2--5-5-5-5-5-5--7-7-7-7-7-7--5-7--|
E|---------------------------5-5-5-5-5-5----5--|


Fill x1
e|--------------------------------|
B|--------------------------------|
G|-4-4-4-4-4-4-4-4--7-----4---9b--|
D|-4-4-4-4-4-4-4-4--7-7---4-------|
A|-2-2-2-2-2-2-2-2--5-7---2-------|
E|--------------------5-----------|

Verse x2
e|---------------------------------------------|
B|---------------------------------------------|
G|-4-4-4-4-4-4-4-4--7-----4-4-4-4-4-4-4-4--9b--|
D|-4-4-4-4-4-4-4-4--7-7---4-4-4-4-4-4-4-4------|
A|-2-2-2-2-2-2-2-2--5-7---2-2-2-2-2-2-2-2------|
E|--------------------5------------------------|

Outro x4 then ending
e|-----------------------|----|
B|-----------------------|----|
G|-4-4-4-4-4-4-4-4--7----|-4--|
D|-4-4-4-4-4-4-4-4--7-7--|-4--|
A|-2-2-2-2-2-2-2-2--5-7--|-2--|
E|--------------------5--|----|
Tap to rate this tab
# A B C D E F G H I J K L M N O P Q R S T U V W X Y Z