Song name
# A B C D E F G H I J K L M N O P Q R S T U V W X Y Z

The Suicide File - Fuck Fox News tab

b - Bend
/ - Slide

Intro x1
Guitar 1 
e|---------------------------------------------------------------------------------------------|
B|---------------------------------------------------------------------------------------------|
G|----------------------------------------------------------------------------------7-------9--|
D|-9-9-9-9-9-9-9-9--9-9-8-7---9-9-9-9-9-9-9-9--9-9-8-7---9-9-9-9-9-9-9-9--9-9-8-7---7-------9--|
A|-9-9-9-9-9-9-9-9--9-9-8-7---9-9-9-9-9-9-9-9--9-9-8-7---9-9-9-9-9-9-9-9--9-9-8-7---5-------7--|
E|-7-7-7-7-7-7-7-7--7-7-6-5---7-7-7-7-7-7-7-7--7-7-6-5---7-7-7-7-7-7-7-7--7-7-6-5--------------|
Guitar 2
e|--------------------------------------------------------------------------------------------------------|
B|----------------------------------------------------------------------------------12------12-----12-----|
G|----------------------------------------------------------------------------------15b17---15b17--15b17--|
D|----------------------------9--------------------------9------------------------------------------------|
A|----------------------------9--------------------------9------------------------------------------------|
E|----------------------------7--------------------------7------------------------------------------------|


Verse x2
e|------------------------------------------------------|
B|------------------------------------------------------|
G|---------------------------------------------------7--|
D|-9-9-9-9-9-9-9-9--9-9-8-7---9-9-9-9-9-9-9-9--9-8-7-7--|
A|-9-9-9-9-9-9-9-9--9-9-8-7---9-9-9-9-9-9-9-9--9-8-7-5--|
E|-7-7-7-7-7-7-7-7--7-7-6-5---7-7-7-7-7-7-7-7--7-6-5----|

e|------------------------------------------------------|
B|------------------------------------------------------|
G|----------------------------7-7-7-7-7-7--9-9-9-9-9-9--|
D|-9-9-9-9-9-9-9-9--9-9-8-7---7-7-7-7-7-7--9-9-9-9-9-9--|
A|-9-9-9-9-9-9-9-9--9-9-8-7---5-5-5-5-5-5--7-7-7-7-7-7--|
E|-7-7-7-7-7-7-7-7--7-7-6-5-----------------------------|


Chorus x2
e|-----------------------------------------------|
B|-----------------------------------------------|
G|-7-7-7-7-7--7-7-7-7-7--7-7-7-7-7--7-7-7/9-9-9--|
D|-7-7-7-7-7--7-7-7-7-7--7-7-7-7-7--7-7-7/9-9-9--|
A|-5-5-5-5-5--5-5-5-5-5--5-5-5-5-5--5-5-5/7-7-7--|
E|-----------------------------------------------|

e|--------------------------------------------|
B|--------------------------------------------|
G|--------------------------------------------|
D|-9-9-9-9-9--9-9-9-9-9--9-9-9-9-9--9-9-9-9-9-|
A|-9-9-9-9-9--9-9-9-9-9--9-9-9-9-9--9-9-9-9-9-|
E|-7-7-7-7-7--7-7-7-7-7--7-7-7-7-7--7-7-7-7-7-|


Verse x2
e|------------------------------------------------------|
B|------------------------------------------------------|
G|---------------------------------------------------7--|
D|-9-9-9-9-9-9-9-9--9-9-8-7---9-9-9-9-9-9-9-9--9-8-7-7--|
A|-9-9-9-9-9-9-9-9--9-9-8-7---9-9-9-9-9-9-9-9--9-8-7-5--|
E|-7-7-7-7-7-7-7-7--7-7-6-5---7-7-7-7-7-7-7-7--7-6-5----|

e|------------------------------------------------------|
B|------------------------------------------------------|
G|----------------------------7-7-7-7-7-7--9-9-9-9-9-9--|
D|-9-9-9-9-9-9-9-9--9-9-8-7---7-7-7-7-7-7--9-9-9-9-9-9--|
A|-9-9-9-9-9-9-9-9--9-9-8-7---5-5-5-5-5-5--7-7-7-7-7-7--|
E|-7-7-7-7-7-7-7-7--7-7-6-5-----------------------------|


Chorus x2
e|-----------------------------------------------|
B|-----------------------------------------------|
G|-7-7-7-7-7--7-7-7-7-7--7-7-7-7-7--7-7-7/9-9-9--|
D|-7-7-7-7-7--7-7-7-7-7--7-7-7-7-7--7-7-7/9-9-9--|
A|-5-5-5-5-5--5-5-5-5-5--5-5-5-5-5--5-5-5/7-7-7--|
E|-----------------------------------------------|

e|--------------------------------------------|
B|--------------------------------------------|
G|--------------------------------------------|
D|-9-9-9-9-9--9-9-9-9-9--9-9-9-9-9--9-9-9-9-9-|
A|-9-9-9-9-9--9-9-9-9-9--9-9-9-9-9--9-9-9-9-9-|
E|-7-7-7-7-7--7-7-7-7-7--7-7-7-7-7--7-7-7-7-7-|


Breakdown x3
e|---------------------------------------------------------------------|----|
B|---------------------------------------------------------------------|----|
G|---------------------------------------------------------------------|----|
D|-9-9-9-9-9-9-9-9--9-9-9-9-9-9-9-9--9-9-9-9-9-9-9-9--9-9-9-9-9-9-9-9--|-9--|
A|-9-9-9-9-9-9-9-9--9-9-9-9-9-9-9-9--9-9-9-9-9-9-9-9--9-9-9-9-9-9-9-9--|-9--|
E|-7-7-7-7-7-7-7-7--7-7-7-7-7-7-7-7--7-7-7-7-7-7-7-7--7-7-7-7-7-7-7-7--|-7--|


-BHT
Tap to rate this tab
# A B C D E F G H I J K L M N O P Q R S T U V W X Y Z