Song name
# A B C D E F G H I J K L M N O P Q R S T U V W X Y Z

The Summer Obsession - 8am tab

-----------------------------------------------------------------
8am - The Summer Obsession
-----------------------------------------------------------------
Tabbed by: Bair
Email: bair_morritt@hotmail.com

Tuning: Standard

Intro (Piano):
e|------------------------------------------|
B|------------------------------------------|
G|------------------------------------------|
D|--------2-----------2----(X6)-------------|
A|--3-5-3---3-3-3-5-3---3-------------------|
E|------------------------------------------|
There in the summer of my new....

Verse:
e|-----------------------------------------------|
B|-----------------------------------------------|
G|--55555555--22222222---------------------------|
D|--55555555--22222222--33333333--55555555(X2)--|
A|--33333333--00000000--33333333--55555555-------|
E|----------------------11111111--33333333-------|
8 in the morning and I got your letter....

Pre-Chorus:
e|------------------------------------------|
B|------------------------------------------|
G|--2-22--2-22------------------------------|
D|--2-22--2-22--3-33--3-33(X2)--55555555---|
A|--0-00--0-00--3-33--3-33-------55555555---|
E|--------------1-11--1-11-------33333333---|
And Id never say no to you....

-Then Verse
-Then Pre-Chorus

Chorus:
e|-----------------------------------------------|
B|-----------------------------------------------|
G|--55555555------------22222222-----------------|
D|--55555555--33333333--22222222--55555555(X2)--|
A|--33333333--33333333--00000000--55555555-------|
E|------------11111111------------33333333-------|
You said everything would be alright....

-Then Verse(Picked)

Interlude:
e|------------------------------------------|
B|------------------------------------------|
G|--55--22----------------------------------|
D|--55--22--33--55--------------------------|
A|--33--00--33--55--------------------------|
E|----------11--33--------------------------|
Come to my rescue whenever I call....

e|-----------------------------------------------|
B|-----------------------------------------------|
G|--55555555--22222222---------------------------|
D|--55555555--22222222--33333333--55555555(X2)--|
A|--33333333--00000000--33333333--55555555-------|
E|----------------------11111111--33333333-------|
Knock on my door if even I fall....

-Then Chorus(X2)
-Then Pre-Chorus
-Then Chorus

END
Tap to rate this tab
# A B C D E F G H I J K L M N O P Q R S T U V W X Y Z